» » »

Baroness - Psalms Alive Tabs

Artists:  A B C D E F G H I J K L M N O P Q R S T U V W X Y Z # 

Psalms Alive Tabs

(ver. 1) Click to play this song!
Baroness
 Rating:
4.1/5 (31 vote)

 Psalms Alive lessons Tabs too difficult? Try these video lessons and learn fast
 
                [Intro]
      Gtr.1
e |--------------------------|-------------------------|-------------------------|--------------------------|
B |---1-----3-----5-----6----|--8----10----13----12----|-10-----8-----5-----6----|--3-----------0-h1--3-----|
G |---2-----------5----------|--9----------12----12----|-10-----------5----------|--4-----------------------|
D |--------------------------|-------------------------|-------------------------|--5-----------------------|
A |--------------------------|-------------------------|-------------------------|--------------------------|
E |--------------------------|-------------------------|-------------------------|--------------------------|


      Gtr.1
E |--------------------------|-------------------------|-------------------------|--------------------------|
B |---5-----3-----1-----0----|--------------1-----3----|-------------------------|--------------------------|
G |---2-----------2----------|--2-----4----------------|-------------------------|--------------------------|
D |--------------------------|--2----------------------|--2-----5-----3-----2----|--3-----------------------|
A |--------------------------|-------------------------|--3----------------------|--3-----------------------|
E |--------------------------|-------------------------|-------------------------|--------------------------|


      Gtr.1
e |--------------------------|-------------------------|-------------------------|--------------------------|
B |---1-----3-----5-----6----|--8----10----13----12----|-10-----8-----5-----6----|--3-----------0-h1--3-----|
G |---2-----------5----------|--9----------12----12----|-10-----------5----------|--4-----------------------|
D |--------------------------|-------------------------|-------------------------|--5-----------------------|
A |--------------------------|-------------------------|-------------------------|--------------------------|
E |--------------------------|-------------------------|-------------------------|--------------------------|


      Gtr.1
E |--------------------------|-------------------------|-------------------------|--------------------------|
B |---5-----3-----1-----0----|--------------1-----3----|-------------------------|--------------------------|
G |---2-----------2----------|--2-----4----------------|-------------------------|--------------------------|
D |--------------------------|--2----------------------|--2-----5-----3-----2----|--3-----------------------|
A |--------------------------|-------------------------|--3----------------------|--3-----------------------|
E |--------------------------|-------------------------|-------------------------|--------------------------|
  |
  |   Gtr.2
  |   C           G            Dm           F            Am           C             F
e |---------------3----------|--5-----------1----------|--5----------------------|--1-----------------------|
B |---5-----------3----------|--6-----------1----------|--5-----------5----------|--1-----------------------|
G |---5-----------4----------|--7-----------2----------|--5-----------5----------|--2-----------------------|
D |---5-----------5----------|--7-----------3----------|--7-----------5----------|--3-----------------------|
A |---3-----------5----------|--5----------------------|--7-----------3----------|--------------------------|
E |---------------3----------|-------------------------|--5----------------------|--------------------------|



[Verse]
      Gtr.2
    (Am)         Dm             F          Dm             C                         G
e |---------------5----------|--1-----------5----------|-------------------------|--3-----------------------|
B |---------------6----------|--1-----------6----------|--5----------------------|--3-----------------------|
G |---------------7----------|--2-----------7----------|--5----------------------|--4-----------------------|
D |---------------7----------|--3-----------7----------|--5----------------------|--5-----------------------|
A |---------------5----------|--------------5----------|--3----------------------|--5-----------------------|
E |--------------------------|-------------------------|-------------------------|--3-----------------------|
[0:29 "I am"]

      Gtr.2
     (C)          G            Dm           F            Am           C             F 
e |---------------3----------|--5-----------1----------|--5----------------------|--1-----------------------|
B |---------------3----------|--6-----------1----------|--5-----------5----------|--1-----------------------|
G |---------------4----------|--7-----------2----------|--5-----------5----------|--2-----------------------|
D |---------------5----------|--7-----------3----------|--7-----------5----------|--3-----------------------|
A |---------------5----------|--5----------------------|--7-----------3----------|--------------------------|
E |---------------3----------|-------------------------|--5----------------------|--------------------------|


[0:44 - 0:58 N.C.]


[Verse Riff]
      Gtr.1
e||--------------------------|-------------------------|-------------------------|--------------------------|
B||o--1-----3-----5-----6----|--8----10----13----12----|-10-----8-----5-----6----|--3----------(0-h1--3)----|
G||---2-----------5----------|--9----------12----12----|-10-----------5----------|--4-----------------------|
D||--------------------------|-------------------------|-------------------------|--5-----------------------|
A||o-------------------------|-------------------------|-------------------------|--------------------------|
E||--------------------------|-------------------------|-------------------------|--------------------------|
 ||                                                                                            (2nd time)
 ||   Gtr.2
 ||  Am          Dm             F          Dm             C                         G
e||---5-----------5----------|--1-----------5----------|-------------------------|--3-----------------------|
B||o--5-----------6----------|--1-----------6----------|--5----------------------|--3-----------------------|
G||---5-----------7----------|--2-----------7----------|--5----------------------|--4-----------------------|
D||---7-----------7----------|--3-----------7----------|--5----------------------|--5-----------------------|
A||o--7-----------5----------|--------------5----------|--3----------------------|--5-----------------------|
E||---5----------------------|-------------------------|-------------------------|--3-----------------------|
[0:58]

      Gtr.1                                                                                                 2x
E |--------------------------|-------------------------|-------------------------|--------------------------||
B |---5-----3-----1-----0----|--------------1-----3----|-------------------------|-------------------------o||
G |---2-----------2----------|--2-----4----------------|-------------------------|--------------------------||
D |--------------------------|--2----------------------|--2-----5-----3-----2----|--3-----------------------||
A |--------------------------|-------------------------|--3----------------------|--3----------------------o||
E |--------------------------|-------------------------|-------------------------|--------------------------||
  |
  |   Gtr.2
  |   C           G            Dm           F            Am           C             F
e |---------------3----------|--5-----------1----------|--5----------------------|--1-----------------------||
B |---5-----------3----------|--6-----------1----------|--5-----------5----------|--1----------------------o||
G |---5-----------4----------|--7-----------2----------|--5-----------5----------|--2-----------------------||
D |---5-----------5----------|--7-----------3----------|--7-----------5----------|--3-----------------------||
A |---3-----------5----------|--5----------------------|--7-----------3----------|-------------------------o||
E |---------------3----------|-------------------------|--5----------------------|--------------------------||



[Verse]
      Gtr.1
e |--------------------------|-------------------------|-------------------------|--------------------------|
B |--------------------------|-------------13----12----|-10-----------5-----6----|--------------------------|
G |--------------------------|-------------------------|-------------------------|--------------------------|
D |--------------------------|-------------------------|-------------------------|--------------------------|
A |--------------------------|-------------------------|-------------------------|--------------------------|
E |--------------------------|-------------------------|-------------------------|--------------------------|
  |
  |   Gtr.2
  | (Am)        (Dm)            F          Dm             C                        (G)
e |--------------------------|--1-----------5----------|-------------------------|--------------------------|
B |--------------------------|--1-----------6----------|--5----------------------|--------------------------|
G |--------------------------|--2-----------7----------|--5----------------------|--------------------------|
D |--------------------------|--3-----------7----------|--5----------------------|--------------------------|
A |--------------------------|--------------5----------|--3----------------------|--------------------------|
E |--------------------------|-------------------------|-------------------------|--------------------------|
[1:24 "I am"]

      Gtr.1                                                                                                 
E |--------------------------|-------------------------|-------------------------|--------------------------|
B |---5-----3-----1-----0----|--------------1-----3----|-------------------------|--------------------------|
G |--------------------------|--2-----4----------------|-------------------------|--------------------------|
D |--------------------------|-------------------------|--2----------------------|--------------------------|
A |--------------------------|-------------------------|-------------------------|--------------------------|
E |--------------------------|-------------------------|-------------------------|--------------------------|
  |
  |   Gtr.2
  |  (C)          G            Dm           F            Am           C             F
e |---------------3----------|--5-----------1----------|--5----------------------|--1-----------------------|
B |---------------3----------|--6-----------1----------|--5-----------5----------|--1-----------------------|
G |---------------4----------|--7-----------2----------|--5-----------5----------|--2-----------------------|
D |---------------5----------|--7-----------3----------|--7-----------5----------|--3-----------------------|
A |---------------5----------|--5----------------------|--7-----------3----------|--------------------------|
E |---------------3----------|-------------------------|--5----------------------|--------------------------|


      Gtr.1
e |--------------------------|-------------------------|-------------------------|--------------------------|
B |---1-----3-----5-----6----|--8----10----13----12----|-10-----8-----5-----6----|--3-----------0-h1--3-----|
G |--------------------------|-------------------------|-------------------------|--------------------------|
D |--------------------------|-------------------------|-------------------------|--------------------------|
A |--------------------------|-------------------------|-------------------------|--------------------------|
E |--------------------------|-------------------------|-------------------------|--------------------------|
  |
  |   Gtr.2
  |   Am          Dm            F           Dm            C                         G
e |---5-----------5----------|--1-----------5----------|-------------------------|--3-----------------------|
B |---5-----------6----------|--1-----------6----------|--5----------------------|--3-----------------------|
G |---5-----------7----------|--2-----------7----------|--5----------------------|--4-----------------------|
D |---7-----------7----------|--3-----------7----------|--5----------------------|--5-----------------------|
A |---7-----------5----------|--------------5----------|--3----------------------|--5-----------------------|
E |---5----------------------|-------------------------|-------------------------|--3-----------------------|


[1:47 - 1:53 N.C.]


[Prechorus]
      Gtr.3                                                                                                 2x
e||--------------------------|-------------------------|-------------------------|--------------------------||
B||o-------------------------|-------------------------|-------------------------|-------------------------o||
G||--------------------------|-------------------------|-------------------------|--------------------------||
D||---7--7--7--7--7--7--7--7-|--7--7--7--7--7--7--7--7-|-10-10-10-10-10-12-12-12-|--5--5--5--5--5--5--5--5--||
A||o--7--7--7--7--7--7--7--7-|--7--7--7--7--7--7--7--7-|-10-10-10-10-10-12-12-12-|--5--5--5--5--5--5--5--5-o||
E||---5--5--5--5--5--5--5--5-|--5--5--5--5--5--5--5--5-|--8--8--8--8--8-10-10-10-|--3--3--3--3--3--3--3--3--||
 ||
 ||   Gtr.4
e||--------------------------|-------------------------|-------------------------|--------------------------||
B||o-------------------------|-------------------------|-------------------------|-------------------------o||
G||---9--9--9--9--9--9--9--9-|-10-10-10-10--9--9--9--9-|--9--9--9--9--9--7--7--7-|--------------------------||
D||---x--x--x--x--x--x--x--x-|--x--x--x--x--x--x--x--x-|--x--x--x--x--x--x--x--x-|--9--9--9--9--9--7--7--7--||
A||o--7--7--7--7--7--7--7--7-|--8--8--8--8--7--7--7--7-|--7--7--7--7--7--5--5--5-|--x--x--x--x--x--x--x--x-o||
E||--------------------------|-------------------------|-------------------------|--7--7--7--7--7--5--5--5--||
[1:53]


[Chorus]
     Gtr.3
e||--------------------------|-------------------------|-------------------------|--------------------------|
B||o-------------------------|-------------------------|-------------------------|--------------------------|
G||---9--9--9--9--9--9--7--7-|-------------------------|--9--9--9--9--9--9-12-12-|-10-10-10-10-10-10--9--9--|
D||---x--x--x--x--x--x--x--x-|--7--7--7--7--7--7--7--7-|--x--x--x--x--x--x--x--x-|--x--x--x--x--x--x--x--x--|
A||o--7--7--7--7--7--7--5--5-|--x--x--x--x--x--x--x--x-|--7--7--7--7--7--7-10-10-|--8--8--8--8--8--8--7--7--|
E||--------------------------|--5--5--5--5--5--5--5--5-|-------------------------|--------------------------|
 ||
 ||  Gtr.4
e||--------------------------|-------------------------|-------------------------|--------------------------|
B||o-------------------------|-------------------------|-------------------------|--------------------------|
G||--------------------------|-------------------------|-------------------------|--------------------------|
D||---7--7--7--7--7--7--7--7-|--7--7--7--7--7--7--7--7-|--7--7--7--7--7--7--7--7-|--7--7--7--7--7--7--7--7--|
A||o--x--x--x--x--x--x--x--x-|--x--x--x--x--x--x--x--x-|--x--x--x--x--x--x--x--x-|--x--x--x--x--x--x--x--x--|
E||---5--5--5--5--5--5--5--5-|--5--5--5--5--5--5--5--5-|--5--5--5--5--5--5--5--5-|--5--5--5--5--5--5--5--5--|
[2:08 "Hear the seven"]
                                                                            
     Gtr.3                                                                       ┌1, 2, 3                  ┐4x
e |--------------------------|-------------------------|-------------------------|--------------------------||
B |--------------------------|-------------------------|-------------------------|-------------------------o||
G |---5-----7----10-----9----|--7-----5-----7-----9----|-12-------10-\9----------|--------------------------||
D |---x-----x-----x-----x----|--x-----x-----x-----x----|--x--------x-\x-----5----|--7--7--7--7--7--7--7--7--||
A |---3-----5-----8-----7----|--5-----3-----5-----7----|-10--------8-\7-----x----|--x--x--x--x--x--x--x--x-o||
E |--------------------------|-------------------------|--------------------3----|--5--5--5--5--5--5--5--5--||
  |
  |  Gtr.4                                                                       ┌1, 2, 3                  ┐4x
e |--------------------------|-------------------------|-------------------------|--------------------------||
B |--------------------------|-------------------------|-------------------------|-------------------------o||
G |--------------------------|-------------------------|-------------------------|--------------------------||
D |---7--7--7--7--7--7--7--7-|--7--7--7--7--7--7--7--7-|--7--7--7--7--7--7--7--7-|--7--7--7--7--7--7--7--7--||
A |---x--x--x--x--x--x--x--x-|--x--x--x--x--x--x--x--x-|--x--x--x--x--x--x--x--x-|--x--x--x--x--x--x--x--x-o||
E |---5--5--5--5--5--5--5--5-|--5--5--5--5--5--5--5--5-|--5--5--5--5--5--5--5--5-|--5--5--5--5--5--5--5--5--||

     
  ┌4 Gtr.3                                                                                                  ┐
e |--------------------------|-------------------------|-------------------------|--------------------------|
B |--------------------------|-------------------------|-------------------------|--------------------------|
G |--------------------------|-------------------------|-------------------------|--------------------------|
D |---7--7--7--7--7--7--7--7-|--7--7--7--7--7--7--7--7-|--7--7--7--7--7--7--7--7-|--7--7--7--7--7--7--7--7--|
A |---x--x--x--x--x--x--x--x-|--x--x--x--x--x--x--x--x-|--x--x--x--x--x--x--x--x-|--x--x--x--x--x--x--x--x--|
E |---5--5--5--5--5--5--5--5-|--5--5--5--5--5--5--5--5-|--5--5--5--5--5--5--5--5-|--5--5--5--5--5--5--5--5--|
  |
  ┌4 Gtr.4                                                                                                  ┐
e |--5p3h5p3h5p3h5p3h5p3h5p3-|h5p3h5p3h5p3h5p3h5p3h5p3-|h5p3h5p3h5p3h5p3h5p3h5p3-|h5p3h5p3h5p3h5p3h5p3h5p3--|
B |--------------------------|-------------------------|-------------------------|--------------------------|
G |--------------------------|-------------------------|-------------------------|--------------------------|
D |--------------------------|-------------------------|-------------------------|--------------------------|
A |--------------------------|-------------------------|-------------------------|--------------------------|
E |--------------------------|-------------------------|-------------------------|--------------------------|
[3:02]


[Solo]
     Gtr.5                                                                                                  4x
e||--------------------------|-------------------------|-------------------------|/10~----------7\----------||
B||o-/12~--------------------|--9h12-------8---------8-|--8~---------------------|-/x-----------x\---------o||
G||--------------------------|------9~-----------------|---------------8h9p7h9---|-/7~----------4\----------||
D||--------------------------|-------------------------|-------------------------|--------------------------||
A||o-------------------------|-------------------------|-------------------------|-------------------------o||
E||--------------------------|-------------------------|-------------------------|--------------------------||
 ||
 ||  Gtr.6                                                                                                  4x
e||--------------------------|-------------------------|-------------------------|--------------------------||
B||o-------------------------|-------------------------|-------------------------|-/12~--------10\8--------o||
G||--10h12~------------------|-10h12--------9--------9-|--9~---------------------|---x----------x-x---------||
D||--------------------------|-----10~-----------------|-------------9h10p9h10---|--/9~---------7\5---------||
A||o-------------------------|-------------------------|-------------------------|-------------------------o||
E||--------------------------|-------------------------|-------------------------|--------------------------||
[3:09]


[Outro]
      Gtr.1
e |--------------------------|-------------------------|-------------------------|--------------------------|
B |---1-----3-----5-----6----|--8----10----13----12----|-10-----8-----5-----6----|--3-----------------------|
G |---2-----------5----------|--9----------12----12----|-10-----------5----------|--4-----------------------|
D |--------------------------|-------------------------|-------------------------|--5-----------------------|
A |--------------------------|-------------------------|-------------------------|--------------------------|
E |--------------------------|-------------------------|-------------------------|--------------------------|
  |
  |   Gtr.2
  |  Am          Dm             F          Dm             C                         G
e |---5-----------5----------|--1-----------5----------|-------------------------|--3-----------------------|
B |---5-----------6----------|--1-----------6----------|--5----------------------|--3-----------------------|
G |---5-----------7----------|--2-----------7----------|--5----------------------|--4-----------------------|
D |---7-----------7----------|--3-----------7----------|--5----------------------|--5-----------------------|
A |---7-----------5----------|--------------5----------|--3----------------------|--5-----------------------|
E |---5----------------------|-------------------------|-------------------------|--3-----------------------|
[3:37]

      Gtr.1
E |--------------------------|-------------------------|-------------------------|--------------------------|
B |---5-----3-----1-----0----|--------------1-----3----|-------------------------|--------------------------|
G |---2-----------2----------|--2-----4----------------|-------------------------|--------------------------|
D |--------------------------|--2----------------------|--2-----5-----3-----2----|--3-----------------------|
A |--------------------------|-------------------------|--3----------------------|--3-----------------------|
E |--------------------------|-------------------------|-------------------------|--------------------------|
  |
  |   Gtr.2
  |   C           G            Dm           F            Am           C             F
e |---------------3----------|--5-----------1----------|--5----------------------|--1-----------------------|
B |---5-----------3----------|--6-----------1----------|--5-----------5----------|--1-----------------------|
G |---5-----------4----------|--7-----------2----------|--5-----------5----------|--2-----------------------|
D |---5-----------5----------|--7-----------3----------|--7-----------5----------|--3-----------------------|
A |---3-----------5----------|--5----------------------|--7-----------3----------|--------------------------|
E |---------------3----------|-------------------------|--5----------------------|--------------------------|


      Gtr.1
e |--------------------------|-------------------------|-------------------------|---------------------3----|
B |---1-----3-----5-----6----|--8----10----13----12----|-10-----8-----5-----6----|--3-----------0--1h3------|
G |---2-----------5----------|--9----------12----12----|-10-----------5----------|--4-----------------------|
D |--------------------------|-------------------------|-------------------------|--5-----------------------|
A |--------------------------|-------------------------|-------------------------|--------------------------|
E |--------------------------|-------------------------|-------------------------|--------------------------|
  |
  |   Gtr.2
  | (Am)        (Dm)           (F)        (Dm)           (C)                        G
e |--------------------------|-------------------------|-------------------------|--3-----------------------|
B |--------------------------|-------------------------|-------------------------|--3-----------------------|
G |--------------------------|-------------------------|-------------------------|--4-----------------------|
D |--------------------------|-------------------------|-------------------------|--5-----------------------|
A |--------------------------|-------------------------|-------------------------|--5-----------------------|
E |--------------------------|-------------------------|-------------------------|--3-----------------------|


      Gtr.1
E |--------------------------|-------------------------|-------------------------|--------------------------|
B |---5-----3-----1-----0----|--------------1-----3----|-------------------------|--------------------------|
G |---2-----------2----------|--2-----4----------------|-------------------------|--------------------------|
D |--------------------------|--2----------------------|--2-----5-----3-----2----|--3-----------------------|
A |--------------------------|-------------------------|--3----------------------|--3-----------------------|
E |--------------------------|-------------------------|-------------------------|--------------------------|
  |
  |   Gtr.2
  |   C           G           (Dm)         (F)           Am          (C)            F
e |---------------3----------|-------------------------|--5----------------------|--1-----------------------|
B |---5-----------3----------|-------------------------|--5----------------------|--1-----------------------|
G |---5-----------4----------|-------------------------|--5----------------------|--2-----------------------|
D |---5-----------5----------|-------------------------|--7----------------------|--3-----------------------|
A |---3-----------5----------|-------------------------|--7----------------------|--------------------------|
E |---------------3----------|-------------------------|--5----------------------|--------------------------|

            
Submit corrections


        Psalms Alive lessons Hard to play? Try these video lessons and learn fast Psalms Alive lessons
        
↑ Back to top | Tablatures and chords for acoustic guitar and electric guitar, ukulele, drums are parodies/interpretations of the original songs. You may use it for private study, scholarship, research or language learning purposes only