» » »

Baroness - Chlorine And Wine Tabs

Artists:  A B C D E F G H I J K L M N O P Q R S T U V W X Y Z # 

Chlorine And Wine Tabs

(ver. 1) Click to play this song!
Baroness
 Rating:
2.3/5 (29 votes)

 Chlorine And Wine  lessons Tabs too difficult? Try these video lessons and learn fast
 
                d|------------------------------------------------------------------------------------------------------|
A|------------------------------------------------------------------------------------------------------|
F|------------------------------------------------------------------------------------------------------|
C|---9-10-14-------9-10-14-----7-------9-10-14-------9-10-14-----9-----9--------------------------------|
G|------------------------------------------------------------------------------------------------------|
C|-7------10-----7------10-----3-----7------10-----7------10-----5-----6--------------------------------|

   Gm    A#         Gm    A#    D#         Gm    A#                     Gm    A#    
d|-0-----0----------0-----0----------------0-----0----------------------0-----0-------------------------|
A|-1-----1----------1-----1----------------1-----1----------------------1-----1-----3-------------------|
F|-2-----0----------2-----0-----2----------2-----0-----10--10----10-----2-----0-----0-----1-------------|
C|-2-----2----------2-----2-----3----------2-----2------------14--------2-----2-----------2-------------|
G|-0-----3----------0-----3-----3----------0-----3----------------------0-----3-----2-----2-------------|
C|------------------------------3-----------------------------------------------------------------------|

d|------------------------------------------------------------------------------------------------------|
A|-5~---------------5~--------------------5~-------------------------5~-------------3----4--4/1--1-3-4--|
F|----7-5-4-5----------7-5-4-5-7-9-10--------7-5-4-5-----10-9-10--------7-5-4-5-7-9/--------------------|
C|------------5--------------------------------------5\7------------------------------------------------|
G|------------------------------------------------------------------------------------------------------|
C|------------------------------------------------------------------------------------------------------|            
Submit corrections


        Chlorine And Wine  lessons Hard to play? Try these video lessons and learn fast Chlorine And Wine  lessons
        
↑ Back to top | Tablatures and chords for acoustic guitar and electric guitar, ukulele, drums are parodies/interpretations of the original songs. You may use it for private study, scholarship, research or language learning purposes only