Home » B » Baroness »

Baroness - Mtns The Crown Anchor Tabs

Artists:  A B C D E F G H I J K L M N O P Q R S T U V W X Y Z # 

Mtns The Crown Anchor Tabs

(ver. 1) Click to play this song!
Baroness
1st Guitar:
let ring!

e|-------12-|
B|-12-------|
G|----12----|
D|----------| repeated throughout the whole intro
A|----------|
E|----------|


2nd Guitar:

e|---2h3---0-7-5-0---0-------0---------0---2h3---0-7-5-0---0-------0-------------0-|
B|-----------------5---5-3h5-------3h5-------------------5---5-3h5---5p3p0-3p0-----|
G|---------------------------------------------------------------------------------|
D|-------2-------------------------------2-----2-----------------------------------| 
A|-----------7-5-3-------------3-3-----------------7-5-3-----------------------3---|
E|-0-------------------------------------------------------------------------------|

e|---2h3---0-7-5-0---0-------0---------0---2h3---0-7-5-2-0-0-----------------------|
B|-----------------5---5-3h5-------3h5---------------------------------------------|
G|---------------------------------------------------------------------------------|
D|-------2-------------------------------2-----2-----------------------------------| 
A|-----------7-5-3-------------3-3-----------------7-5-5-3-3-----------------------|
E|-0-------------------------------------------------------------------------------|
            
Submit corrections

↑ Back to top | Tablatures and chords for acoustic guitar and electric guitar, ukulele, drums are parodies/interpretations of the original songs. You may use it for private study, scholarship, research or language learning purposes only