» » »

Barenaked Ladies - Bryan Wilson Bass

Artists:  A B C D E F G H I J K L M N O P Q R S T U V W X Y Z # 

Bryan Wilson Bass

(ver. 1) Click to play this song!
Barenaked Ladies
 Rating:
4/5 (4 votes)
                  BTAB: Bryan Wilson

**Padrino's Bass Tab Exclusive!**

This is one of the coolest basslines in the world. Especially the ending. It
is played on Stick Bass (electric upright) or normal Upright. This is from
the live version, but I am almost positive its exactly the same as the
studio one.

[bass/drums enter]
Intro:
G--------------------------------------|
D-------------------------------5------|
A-------5-3-3-3-0h1-1-0-0-0-0-x---5----|
E-x-3-3-----------------------------3--|

Verse:
G--------------------------------|
D--------1/3-3-----0-0-----1-1---|
A-1-1----------3-3-----0-0-----1-|
E-----1--------------------------|

Chorus:
G-------------------------------|
D-------3-3-----1-1-----1-1-----|
A-1-1-------3-3-----1-1-----1-1-|
E-----1-------------------------|

"I had a dream..."
G-------------------------|
D-------------------------|
A-3~----3~----3~----3~----|
E----3~----3~----3~----3~-|

[drums re-enter]      [Build up part.]
G-------------------|----------------------------|
D-------3/5-x-5-5-5-|-5-3-----5-3----------------|
A-3-----------------|-----5-3-----5-3-1-->chorus-|
E---3-3-------------|----------------------------|

"Staaarrrrt...."
G--------------------------------------|
D--------------------------------------|
A-----------[intro played a few times]-|
E-0h3~-0h3~----------------------------|

Ending build up:                                  repeats til end
G-11h12-11h12-11h12-11h12-11h12-12-12-9-9-7-7-5-5-|-----7-5-----|----------|
D-------------------------------------------------|-5-8-----8---|----------|
A-------------------------------------------------|-----------8-|----------|
E-------------------------------------------------|-------------|-3~-3\0-x-|
            
Submit corrections

↑ Back to top | Tablatures and chords for acoustic guitar and electric guitar, ukulele, drums are parodies/interpretations of the original songs. You may use it for private study, scholarship, research or language learning purposes only