Home » B » Bap »

Bap - Do Kanns Zaubere Chords

Artists:  A B C D E F G H I J K L M N O P Q R S T U V W X Y Z # 

Do Kanns Zaubere Chords

(ver. 2) Click to play this song!
Bap
 Rating:
4.2/5 (30 votes)
                [Intro]

D   Gmaj7  Em9   A7   D     Gmaj7  Em9      A7 
D5  A9/C#  C9    C9   G/B   G/B    A7sus4   A7  


[Verse]

D                Gmaj7              Em9           A7
  E wies Blatt Papier, ne Bleisteff   Jedanke bei dir setz ich
D                Gmaj7          Em9                  A7
  ahm Finster un huhr, wat sich   avvspillt vuur der Duur, bess ich
  D5               A9/C#           C9                C9
  avvrotsch en die Zick, en der et dich fur mich nit joov
              G/B               G/B          A7sus4          A7
  un mir ming Levve vuurm Daach X op einmohl vuurkutt wie en Stroof


[Chorus]

Cmaj7/G                      D                   Cmaj7/G               D 
  Do kanns zaubere, wie ding Mamm, die Kate laat   irjendsujet muss et sinn 
Am                    Em9              
  jede And're hatt jesaat: 'Et ess zo spat
             C                                A7                   A7*
  da Typ ess faadisch, na da Typ   da krisste wirklich nit mieh hin


[Verse]

D               Gmaj7          Em9             A7
  Mem Rogge zur Wand, spasend    un jede Naach voll woor ich
D                Gmaj7         Em9             A7
  ming bessje Verstand hassend   total vun der Roll woor ich
    D5                   A9/C#            C9          C9
  T'schlemmste woor, als mir, wie do mich endlich registriert
              G/B              G/B             A7sus4         A7
  entsetzlich klarwood, dat et jetz oder nie   met uns zwei passiert

D                    Gmaj7         Em9           A7
  Mensch,woor ich nervos, als ich    dir alles jesaat - hektisch
D                Gmaj7             Em9              A7
  un trotzdamm erlos, weil do mich   nit treck ussjelaach un dich
  D5                   A9/C#            C9                C9
  fur mich intressiert hass, fur all da Stuss, da uss mir kohm
             G/B             G/B                  A7sus4              A7
  fur all da Laber, da ich jebraat hann, weil die Changs zo plotzlich kohm


[Chorus]

Cmaj7/G                      D                   Cmaj7/G               D 
  Do kanns zaubere, wie ding Mamm, die Kate laat   irjendsujet muss et sinn 
Am                    Em9              
  jede And're hatt jesaat: 'Et ess zo spat
             C                                A7                   A7*
  da Typ ess faadisch, na da Typ   da krisste wirklich nit mieh hin


[Verse]

D                Gmaj7              Em9           A7
  E wies Blatt Papier, ne Bleisteff   Jedanke bei dir setz ich
D                Gmaj7        Em9                A7
  ahm Finster un huhr en mich   krij' kaum jet notiert, weil ich
  D5             A9/C#          C9              C9
  immer noch nit raffe, dat mir uns tatsachlich hann
         G/B             G/B             A7sus4          A7
  un mir deshalb halt wiesmaache, dat do wirklich zaubre kanns


[Instrumental]

D   Gmaj7  Em9   A7   D     Gmaj7  Em9      A7                                               


[Solo Chords]

D5  A9/C#  C9    C9   G/B   G/B   A7sus4   A7    

D   Gmaj7  Em9   A7   D     Gmaj7  Em9      A7                                     

D5  A9/C#  C9    C9   G/B   G/B   A7sus4   A7         
    

[Solo]
                                            
e|-17--------|     |--------------------|------------|-----------------------|----|
B|----15-----|     |--------15----15-17-|-15~--------|-17b19---17b19==r17p15-|-17~|
G|-------14~-|     |--14h16----16-------|------14-16-|-----------------------|----|
D|-----------| 3x  |--------------------|------------|-----------------------|----|
A|-----------|     |--------------------|------------|-----------------------|----|
E|-----------|     |--------------------|------------|-----------------------|----|

e|-17--------|     |----------|     |-17--------|     |----------|
B|----15-----|     |----------|     |----15-----|     |----------|
G|-------14~-|     |-14h16-14~|     |-------14~-|     |-14h16-14~|
D|-----------| 3x  |----------|     |-----------| 3x  |----------|
A|-----------|     |----------|     |-----------|     |----------|
E|-----------|     |----------|     |-----------|     |----------|

e|----------------------|------------------------|
B|----------15----15-17-|-17b19----17b19==r17p15-|
G|----14h16----16-------|------------------------|
D|----------------------|------------------------|
A|----------------------|------------------------|
E|----------------------|------------------------|

e|-------------------------|-------------------------------|
B|-17-15----------------15-|-17b19r17p15-17-15-15-----15---|
G|-------14-------14-16----|-----------------------16------|
D|-------------------------|-------------------------------|
A|-------------------------|-------------------------------|
E|-------------------------|-------------------------------|

e|-17b19----17b19r==17-|-15-14---------------|
B|---------------------|-------15------------|
G|---------------------|---------------14-16-|
D|---------------------|---------------------|
A|---------------------|---------------------|
E|---------------------|---------------------|

e|----------------------|--------------|---------------------|
B|-15h17p15----------15-|-17-----------|-17b19----17b19------|
G|----------------16----|----------14--|------------------14-|
D|----------------------|--------------|---------------------|
A|----------------------|--------------|---------------------|
E|----------------------|--------------|---------------------|

e|-17--------|     |----------|     |-17--------|     |----------|
B|----15-----|     |----------|     |----15-----|     |----------|
G|-------14~-|     |-14h16-14~|     |-------14~-|     |-14h16-14~|
D|-----------| 3x  |----------|     |-----------| 3x  |----------|
A|-----------|     |----------|     |-----------|     |----------|
E|-----------|     |----------|     |-----------|     |----------|
            
Submit corrections

↑ Back to top | Tablatures and chords for acoustic guitar and electric guitar, ukulele, drums are parodies/interpretations of the original songs. You may use it for private study, scholarship, research or language learning purposes only