» » »

Banks - Mother Earth Tabs

Artists:  A B C D E F G H I J K L M N O P Q R S T U V W X Y Z # 

Mother Earth Tabs

(ver. 1) Click to play this song!
Banks
 Rating:
4.3/5 (28 votes)

 Mother Earth  lessons Tabs too difficult? Try these video lessons and learn fast
 
                [Intro & Verse 1]: "Underwater, consuming all my kind..."

e|------------------------------|--------------------------------------------|
B|------------------------------|--------------------------------------------|
G|----2-----2--------4-----4----|----2-----2--------4----3-------------------|
D|------2-----2--------4-----4--|------2-----2--------4--3-------------------|
A|------------------------------|--------------------------------------------|
E|-0-2----2-----0-4-----4-------|-0-2----2-----0-4-------3-------------------|

e|------------------------------|--------------------------------------------|
B|------------------------------|--------------------------------------------|
G|----2-----2--------4-----4----|----2-----2--------4------4-----------------|
D|------2-----2--------4-----4--|------2-----2--------4------4---------------|
A|------------------------------|--------------------------------------------|
E|--2----2-----0-4-----4--------|0-2----2-----0-4-------4--------------------|

[Pre Chorus] 
"So I'm not gonna..."/////Still picking/plucking strings

e|---------------------|-----------------------------------------------------|
B|---------------------|-----------------------------------------------------|
G|--9------4------2----|-----9------4------2---------------------------------|
D|--9------4------2----|-----9------4------2---------------------------------|
A|---------------------|-----------------------------------------------------|
E|--9------4------2----|-----9------4------2---------------------------------|

[Chorus]
"Follow me..." /////Strum as chords!

e|---------------------------------------------------------------------------|
B|---------------------------------------------------------------------------|
G|--2-----4--------6--------4------------------------------------------------|  
D|--2-----4--------6--------4------------------------------------------------| (x2)
A|---------------------------------------------------------------------------|
E|--2-----4--------5--------4------------------------------------------------|

[Verse 2]
e|------------------------------|--------------------------------------------|
B|------------------------------|--------------------------------------------|
G|----2-----2--------4-----4----|----2-----2--------4----3-------------------|
D|------2-----2--------4-----4--|------2-----2--------4--3-------------------|
A|------------------------------|--------------------------------------------|
E|-0-2----2-----0-4-----4-------|-0-2----2-----0-4-------3-------------------|

e|------------------------------|--------------------------------------------|
B|------------------------------|--------------------------------------------|
G|----2-----2--------4-----4----|----2-----2--------4------4-----------------|
D|------2-----2--------4-----4--|------2-----2--------4------4---------------|
A|------------------------------|--------------------------------------------|
E|--2----2-----0-4-----4--------|0-2----2-----0-4-------4--------------------|

[Pre Chorus]
/////Still picking/plucking strings

e|---------------------|-----------------------------------------------------|
B|---------------------|-----------------------------------------------------|
G|--9------4------2----|-----9------4------2---------------------------------|
D|--9------4------2----|-----9------4------2---------------------------------|
A|---------------------|-----------------------------------------------------|
E|--9------4------2----|-----9------4------2---------------------------------|

[Chorus]
"Follow me..." /////Strum as chords!

e|---------------------------------------------------------------------------|
B|---------------------------------------------------------------------------|
G|--2-----4--------6--------4------------------------------------------------|  
D|--2-----4--------6--------4------------------------------------------------| (x2)
A|---------------------------------------------------------------------------|
E|--2-----4--------5--------4------------------------------------------------|            
Submit corrections


        Mother Earth  lessons Hard to play? Try these video lessons and learn fast Mother Earth  lessons
        
↑ Back to top | Tablatures and chords for acoustic guitar and electric guitar, ukulele, drums are parodies/interpretations of the original songs. You may use it for private study, scholarship, research or language learning purposes only