Home » B » Bangles »

Bangles - Eternal Flame Tabs

Artists:  A B C D E F G H I J K L M N O P Q R S T U V W X Y Z # 

Eternal Flame Tabs

(ver. 4) Click to play this song!
Bangles
[Intro]

  G           Gsus4        G           Gsus4
 (D)         (Dsus4)      (D)         (Dsus4)

e|2-----2-----3-----3-----|2-----2-----3-----3-----|
B|3-----3-----3-----3-----|3-----3-----3-----3-----|
G|---2-----2-----2-----2--|---2-----2-----2-----2--|
D|------------------------|------------------------|
A|------------------------|------------------------|
E|------------------------|------------------------|

[Verse 1]

  G           Em7          C           D
 (D)         (Bm7)        (G)         (A)

e|2-----2-----2-----2-----|3-----3-----5-----5-----|
B|3-----3-----3-----3-----|3-----3-----5-----5-----|
G|---2-----2-----2-----2--|---4-----4-----6-----6--|
D|------------------------|------------------------|
A|------------------------|------------------------|
E|------------------------|------------------------|

        Close your eyes,   give me your hand, darling

  G           Em7          C           D
 (D)         (Bm7)        (G)         (A)

e|2-----2-----2-----2-----|3-----3-----5-----5-----|
B|3-----3-----3-----3-----|3-----3-----5-----5-----|
G|---2-----2-----2-----2--|---4-----4-----6-----6--|
D|------------------------|------------------------|
A|------------------------|------------------------|
E|------------------------|------------------------|

  Do you feel my heart   beating      Do you understand

  Em          B7           Em7         A7
 (Bm)        (F#7)        (Bm7)       (E7)

e|2-----2-----2-----2-----|2-----2-----4-----4-----|
B|3-----3-----2-----2-----|3-----3-----5-----5-----|
G|---4-----4-----3-----3--|---2-----2-----4-----4--|
D|------------------------|------------------------|
A|------------------------|------------------------|
E|------------------------|------------------------|

        Do you feel the same            Am I only 

  D           Bm7          Am7
 (A)         (F#m7)       (Em7)

e|0-----0-----2-----2-----|3-----3-----3-----3-----|
B|2-----2-----2-----2-----|3-----3-----3-----3-----|
G|---2-----2-----2-----2--|---4-----4-----4-----4--|
D|------------------------|------------------------|
A|------------------------|------------------------|
E|------------------------|------------------------|

  dreaming                 Is this burning

  Am7
 (Em7)

e|3-----3-----3-----3-----|
B|3-----3-----3-----3-----|
G|---4-----4-----4-----4--|
D|------------------------|
A|------------------------|
E|------------------------|

  an eternal flame


[Verse 2]

  G           Em7          C           D
 (D)         (Bm7)        (G)         (A)

e|2-----2-----2-----2-----|3-----3-----5-----5-----|
B|3-----3-----3-----3-----|3-----3-----5-----5-----|
G|---2-----2-----2-----2--|---4-----4-----6-----6--|
D|------------------------|------------------------|
A|------------------------|------------------------|
E|------------------------|------------------------|

        I believe          it's meant to be, darling

  G           Em7          C           D
 (D)         (Bm7)        (G)         (A)

e|2-----2-----2-----2-----|3-----3-----5-----5-----|
B|3-----3-----3-----3-----|3-----3-----5-----5-----|
G|---2-----2-----2-----2--|---4-----4-----6-----6--|
D|------------------------|------------------------|
A|------------------------|------------------------|
E|------------------------|------------------------|

  I watch you when you are sleeping You belong with me

  Em          B7           Em7         A7
 (Bm)        (F#7)        (Bm7)       (E7)

e|2-----2-----2-----2-----|2-----2-----4-----4-----|
B|3-----3-----2-----2-----|3-----3-----5-----5-----|
G|---4-----4-----3-----3--|---2-----2-----4-----4--|
D|------------------------|------------------------|
A|------------------------|------------------------|
E|------------------------|------------------------|

        Do you feel the same            Am I only 

  D           Bm7          Am7
 (A)         (F#m7)       (Em7)

e|0-----0-----2-----2-----|3-----3-----3-----3-----|
B|2-----2-----2-----2-----|3-----3-----3-----3-----|
G|---2-----2-----2-----2--|---4-----4-----4-----4--|
D|------------------------|------------------------|
A|------------------------|------------------------|
E|------------------------|------------------------|

  dreaming                 Is this burning

  Am7
 (Em7)

e|3-----3-----3-----3-----|
B|3-----3-----3-----3-----|
G|---4-----4-----4-----4--|
D|------------------------|
A|------------------------|
E|------------------------|

  an eternal flame


[Chorus]

 D      Dm7  D6sus                  D
(A)    (Am7)(A6sus)                (A)
 Say my name sun shines through the rain

         F       G
        (C)     (D)
 A whole life so lonely

              C        G/B      Am7
             (G)      (G/D)    (Em7)
 And then you come and ease the pain

 D       Bm7               F   C
(A)     (F#m7)            (C) (G)
 I don't want to lose this feeling

 D
(A)
 Ohhhhhhhhhh


[Bridge]

  Em          B7           Em7         A7
 (Bm)        (F#7)        (Bm7)       (E7)

e|2-----2-----2-----2-----|2-----2-----4-----4-----|
B|3-----3-----2-----2-----|3-----3-----5-----5-----|
G|---4-----4-----3-----3--|---2-----2-----4-----4--|
D|------------------------|------------------------|
A|------------------------|------------------------|
E|------------------------|------------------------|
 |                                                 |
e|2-----2--------2p3h2h5--|------------------------|
B|------------------------|/3---5\3---2------2-----|
G|------------------------|------------------------|
D|------------------------|------------------------|
A|------------------------|------------------------|
E|------------------------|------------------------|

  D           Bm7          Am7
 (A)         (F#m7)       (Em7)

e|0-----0-----2-----2-----|3-----3-----3-----3-----|
B|2-----2-----2-----2-----|3-----3-----3-----3-----|
G|---2-----2-----2-----2--|---4-----4-----4-----4--|
D|------------------------|------------------------|
A|------------------------|------------------------|
E|------------------------|------------------------|
 |                                                 |
e|------------------------|------------------------|
B|2\5--5\3----3-----------|------------------------|
G|-----------------/2-----|/2-5--4/5---------------|
D|------------------------|------------5--5/2------|
A|------------------------|------------------------|
E|------------------------|------------------------|

  Am7
 (Em7)

e|3-----3-----3-----3-----|
B|3-----3-----3-----3-----|
G|---4-----4-----4-----4--|
D|------------------------|
A|------------------------|
E|------------------------|
 |                        |
e|------------------------|
B|------------------------|
G|2--------5-----4--------|
D|------------------------|
A|------------------------|
E|------------------------|


[Outro]

  G           Em7          C           D
 (D)         (Bm7)        (G)         (A)

e|2-----2-----2-----2-----|3-----3-----5-----5-----|
B|3-----3-----3-----3-----|3-----3-----5-----5-----|
G|---2-----2-----2-----2--|---4-----4-----6-----6--|
D|------------------------|------------------------|
A|------------------------|------------------------|
E|------------------------|------------------------|

        Close your eyes,   give me your hand, darling

  G           Em7          C           D
 (D)         (Bm7)        (G)         (A)

e|2-----2-----2-----2-----|3-----3-----5-----5-----|
B|3-----3-----3-----3-----|3-----3-----5-----5-----|
G|---2-----2-----2-----2--|---4-----4-----6-----6--|
D|------------------------|------------------------|
A|------------------------|------------------------|
E|------------------------|------------------------|

  Do you feel my heart   beating      Do you understand

  Em          B7           Em7         A7
 (Bm)        (F#7)        (Bm7)       (E7)

e|2-----2-----2-----2-----|2-----2-----4-----4-----|
B|3-----3-----2-----2-----|3-----3-----5-----5-----|
G|---4-----4-----3-----3--|---2-----2-----4-----4--|
D|------------------------|------------------------|
A|------------------------|------------------------|
E|------------------------|------------------------|

        Do you feel the same            Am I only 

  D           Bm7          Am7
 (A)         (F#m7)       (Em7)

e|0-----0-----2-----2-----|3-----3-----3-----3-----|
B|2-----2-----2-----2-----|3-----3-----3-----3-----|
G|---2-----2-----2-----2--|---4-----4-----4-----4--|
D|------------------------|------------------------|
A|------------------------|------------------------|
E|------------------------|------------------------|

  dreaming                 Is this burning

  Am7
 (Em7)

e|3-----3-----3-----3-----|
B|3-----3-----3-----3-----|
G|---4-----4-----4-----4--|
D|------------------------|
A|------------------------|
E|------------------------|

            
Submit corrections

↑ Back to top | Tablatures and chords for acoustic guitar and electric guitar, ukulele, drums are parodies/interpretations of the original songs. You may use it for private study, scholarship, research or language learning purposes only