» » »

Bamboo - Umagang Kay Ganda Tabs

Artists:  A B C D E F G H I J K L M N O P Q R S T U V W X Y Z # 

Umagang Kay Ganda Tabs

(ver. 2) Click to play this song!
Bamboo
 Rating:
4/5 (4 votes)


 Umagang Kay Ganda lessons Tabs too difficult? Try these video lessons and learn fast
 
                Tuning:Standard
this is just the solo of the song the other parts are easy it means you can study it with out a tab..lolz XD
Solo Part1:(1:56-2:16)
e----------|-------------------|-----------5-3-2-5~----------------|
b-2h4-2----|--2h3-2h3-2--------|-3-2-3s5-2-7-5-3-5~----------------|
g------2---|-----------2-2s4-2-|----2------------------------------|
d-------2~-|-2-----------------|-----------------------------------|
a----------|-------------------|-----------------------------------|
e----------|-------------------|-----------------------------------|

Solo Part2:
(2:36-2:42)
Guitar and bass (do this with the bass)
e|-------------------------------------------|
b|-------------------------2h3p2-------------|
g|------------------------------2------------|
d|------------------7—-7s9-------------------|
a|---5-4---------5---------------5-4~--------|
e|--------5---3------------------------------|
(3:02-3:41)
e|------------------|----------------------------|-----------------------------------|
b|-----------3-2----|-7h8p7-5--------------------|--------------5-3---7h8p7-5--------|
g|--------------2---|--------7-6-----------------|---------------------------7-9-----|
d|------7-5~-----2~-|-----------7-9--4h5p4-2-0-2-|----5p4---7p5----------------------|
a|-5-4~-------------|----------------------------|-5p4-------------------------------|
e|------------------|----------------------------|-----------------------------------|

(in this part play 5x the average speed but in the 3x part make it fast a bit..just listen 
to the songXD!!!)
e|---------------------------------------------------------------------|
b|---------------------------------------------------------------------|
g|---------------------------------------------------------4b----------|
d|---------------------------------------2-2---5-5---4-4--2------------|
a|-5p4(5x)-5p4(3x)5p4-s7-5p4-s7-5p4(x5)--------------------------------|
e|---------------------------------------------------------------------|

e|----------------9h10p9--------|
b|-7h8p7-5--------------10------|
g|--------7-6-------------7-6---|
d|-----------7-9----------------|
a|------------------------------|
e|------------------------------|

e|-------------------------------10b.-|
b|----------------------10-10-8-8-----|
g|---------------7-7-6-6--------------|
d|--------7-7-5-5---------------------|
a|-5-5-4-4----------------------------|
e|------------------------------------|
P.S:listen to the song very well timing is important =)

tnx!!
hi guys!!neo-spinners we rock!!
this is my first tab!
-Andre Bugas...
            
Submit corrections



        Umagang Kay Ganda lessons Hard to play? Try these video lessons and learn fast Umagang Kay Ganda lessons
        
↑ Back to top | Tablatures and chords for acoustic guitar and electric guitar, ukulele, drums are parodies/interpretations of the original songs. You may use it for private study, scholarship, research or language learning purposes only