» » »

Bamboo - Beep Beep Tabs

Artists:  A B C D E F G H I J K L M N O P Q R S T U V W X Y Z # 

Beep Beep Tabs

(ver. 1) Click to play this song!
Bamboo
 Rating:
4/5 (4 votes)
                Bamboo - Beep Bepp

Verse 1 : (Drums and Bass Only)

           Beep Beep Beep Beep
           Sabi ng tsuper ng jeep
           Beep Beep Beep Beep
           Tabi kayo baka kayo maipet

Chorus : (W/ Guitar)
         
           Sakay na kayo!
e|---------------------------------|
B|---------------------------------|
G|---9--------------------7--------|
D|---9--------------------7--------|
A|-7--------------------5----------|
E|--x--------------------x---------|
  
           Kahit hanggang kanto!
e|---------------------------------|
B|---------------------------------|
G|---10-------------------12-------|
D|---10-------------------12-------|
A|-8-------------------10----------|
E|--x--------------------x---------|

           Ang buhay ng tsuper!
e|---------------------------------|
B|---------------------------------|
G|---9--------------------7--------|
D|---9--------------------7--------|
A|-7--------------------5----------|
E|--x--------------------x---------|

           Hindi lang biro!
e|---------------------------------|
B|---------------------------------|
G|---10-------------------12-------|
D|---10-------------------12-------|
A|-8-------------------10----------|
E|--x--------------------x---------|

          (Drums and Bass)
Verse 2 : Beep Beep Beep Beep
          Dadalhin ko kayo kahit saan
          Beep Beep Beep Beep
          Alam nyong d pa ako nanananghalian

Repeat Chorus then adlib
Adlib Chords : Power Chords G D C

          (Drums and Bass)
Verse 3 : Beep Beep Beep Beep
          Oras na nang relyepo
          Beep Beep Beep Beep
          Naghihintay na ang pamilya ko

          Beep Beep Beep Beep
          Sabi ng tsuper ng jeep
          Beep Beep Beep Beep
          Tabi kayo baka kayo maipet!

Repeat Chorus


           
           
            
Submit corrections

↑ Back to top | Tablatures and chords for acoustic guitar and electric guitar, ukulele, drums are parodies/interpretations of the original songs. You may use it for private study, scholarship, research or language learning purposes only