» » »

Bamboo - Probinsyana Bass

Artists:  A B C D E F G H I J K L M N O P Q R S T U V W X Y Z # 

Probinsyana Bass

(ver. 2) Click to play this song!
Bamboo
 Rating:
4/5 (4 votes)


 Probinsyana lessons Tabs too difficult? Try these video lessons and learn fast
 
                                             PROBINSYANA (Bassline)
                              As recorded by Bamboo
                  (From the 2007 Album WE STAND ALONE TOGETHER)

Words by Anak Bayan (Alex Cruz)

Music by Bamboo
Arranged by Bamboo
                    want to see and hear the guitar and bass score. check
                    the end of this score to see the legends of this tab)


Gtr I (E A D G) - 'Nathan Azaron - EL Bass'

   Intro
    Q=112
   4/4
    Gtr I
    e e e e e S S S S e     e e e e e S S S S E   E E E E E S S +S  S E
||-----------------------||---------------------|-------------------------|
||o-------------3-------o||-------------3-------|-------------3-(3)-------|
||o-5-5-5-5-5-5-----5-3-o||-5-5-5-5-5-5-----5-3-|-5-5-5-5-5-5-------5-3\--|
||-----------------------||---------------------|-------------------------|


    E. S E E +S  S E E E   E. S +H.        E. S E E +S  S E E E
||-----------------------|---------------|----------------------|
||o----------------------|---------------|----------------------|
||o----------------------|-3--1-(1)------|----------------------|
||--3--1-1-3-(3)-1-1-3-1-|---------------|-3--1-1-3-(3)-1-1-3-1-|


 1.                           2.
  E. S +Q   S S S S +S  E.     E. S +Q   S S S S +S  E.
|---------------------------||-----------------------------|
|---------------3----------o||---------------3-------------|
|-3--1-(1)--3h5---5-(5)-3--o||-3--1-(1)--3h5---5-(5)-3\----|
|---------------------------||-----------------------------|


                                               |3-| |--3--|
  E. S E. S +S  E S +S  S E   E. S E. S +S  S +E  S E S E S
|---------------------------|-------------------------------|
|---------------------------|-------------------------------|
|-5--5-5--5-(5)-5-5-(5)-5-3-|-5--5-5--5-(5)-5-(5)-----------|
|---------------------------|---------------------x-3-3-5-5-|


            |3| |--3--|           |-----3-----|
  E E E E E E S E S E S     E  E  E  S  S  S  S  Q   +Q
|------------------------|-------------10s11---------------||
|-7-7-7-7-7-7------------|-12-12-12-12-------12------------||
|-------------x-3-3-4-4/-|----------------------12--(12)\--||
|------------------------|---------------------------------||


 Verse
  q  H.        q  H.        q  H.        q  H.
|------------|------------|------------|----------|
|------------|------------|------------|----------|
|------------|-3----------|------------|-3--------|
|-3----------|------------|-3----------|----------|


     S  S  e S S e S S e S S e   S S e S S e S S e S S e
||-----------------------------|--------------------------||
||o----------------------------|-------------------------o||
||o-10----10-9---9-8---8-7---7-|-3---3-2---2-1---1-0---0-o||
||-----10------9-----8-----7---|---3-----2-----1-----0----||


 Pre-Verse
                    |3-| |--3--|                     |3-| |--3--|
  E S S E. S +S  S +E  S E S E S   E. S E S S +S  S +E  S E S E S
|--------------------------------|--------------------------------|
|--------------------------------|----------------------5-5-6-6-x-|
|-5-5-5-5--5-(5)-5-(5)-3-3-4-4-x-|-5--5-5-5-5-(5)-5-(5)-----------|
|--------------------------------|--------------------------------|


            |3| |--3--|            |3|
  E E E E E E S E S E S    E E E E E S E E  E
|------------------------|-7-7-7-7-7---7--------||
|-7-7-7-7-7-7------------|-----------7----------||
|-------------x-3-3-4-4/-|----------------------||
|------------------------|---------------5s12\--||


 Verse
        |--3---|               |--3---|
  q  Q  E S E +S  E E   q  E e E S E +S  E E
|---------------------|------5---------------|
|---------------------|----------------------|
|-------------------2-|-3--------------------|
|-3-------x-5-(5)-3---|----------x-0-(0)-1-2-|


         |--3--| |3-|        |3| |--3--| |--3--|  |--3---|
  q  E E E S E S E +S  E   E E S E S E S E S E S +E  S E S
|------------------------|-------3--------------------------|
|------5-----3-----------|-----5---5------------------------|
|----------x---x-5-(5)-4-|-3---------------------------3----|
|-3----------------------|-------------x-0-0---1-(1)-x---1--|


    S S e S S e S S e S S e
||--------------------------|
||o-5---5-4---4-3---3-2---2-|
||o---5-----4-----3-----2---|
||--------------------------|


 1.                          2.
  S S e S S e S S e S S e     S S e S S e S S e E  E
|--------------------------||--------------------------||
|-------------------------o||--------------------------||
|-3---3-2---2-1---1-0---0-o||-3---3-2---2-1---1--------||
|---3-----2-----1-----0----||---3-----2-----1---5s12\--||


 Pre-Chorus
                   |3-| |--3--|                     |3-| |--3--|
  E. S E. S +S  S +E  S E S E S   E. S E S S +S  S +E  S E S E S
|-------------------------------|--------------------------------|
|-------------------------------|----------------------5-5-6-6-x-|
|-5--5-5--5-(5)-5-(5)-3-3-4-4-4-|-5--5-5-5-5-(5)-5-(5)-----------|
|-------------------------------|--------------------------------|


            |3| |--3--|           |-----3------|
  E E E E E E S E S E S    E  E  +E   S  S  S  S  Q   E  E
|-----------------------|---------------10s11---------------||
|-7-7-7-7-7-7-x-5-x-----|-12-12-(12)-12-------12------------||
|-------------------3-x-|------------------------12\--------||
|-----------------------|-----------------------------5s12\-||


   Interlude
    E. S E E +S  S E E E   E. S +H.        E. S E E +S  S E E E
||-----------------------|---------------|----------------------|
||o----------------------|---------------|----------------------|
||o----------------------|-3--1-(1)------|----------------------|
||--3--1-1-3-(3)-1-1-3-1-|---------------|-3--1-1-3-(3)-1-1-3-1-|


 1.                           2.
  E. S +Q   S S S S +S  E.     E. S +H.
|---------------------------||-------------|
|---------------3----------o||-------------|
|-3--1-(1)--3h5---5-(5)-3--o||-3--1-(1)----|
|---------------------------||-------------|


 Intro Revisited
  E E E E E S S +S  S E   E E E E E S S +S  S E
|-----------------------|-----------------------|
|-----------------------|-----------------------|
|-5-5-5-5-5-5-5-(5)-5-3-|-5-5-5-5-5-5-5-(5)-5-3-|
|-----------------------|-----------------------|


  E E E E E S S +S  S E   E E E E E E  Q
|-----------------------|-7-7-7-7-7--------||
|-7-7-7-7-7-7-7-(7)-7-7-|------------------||
|-----------------------|------------------||
|-----------------------|-----------5s12\--||


 Guitar Solo
 Swing Feel Q=112(16=s16)
 E S S S S E S S e S e S   E S S +e  E S S e E e   E S S S S E +e  e S e S
|------------------------|-----------------------|-------------------------|
|5---3---x---------------|-----3-(3)-5---x-5-7-5-|-5---3---x---------------|
|----------5-------3-5---|-5---------------------|-----------5-(5)-----3---|
|--------------x-6-------|-----------------------|-----------------3-6-----|


  E. S +e  E S S e E S S   E E E E E e S S e   S S e E E E S S E E
|--------------x-3-5-3---|-------------------|---------------------|
|------------------------|-------1-2-5-x-5-7-|-7-x-5-2-------------|
|-5--4-(4)-3-----------x-|-3-3-5-------------|---------5-3-2-x-----|
|------------------------|-------------------|-----------------5-3-|


  Q=112
 3/4                   4/4
  S S S S E S S S S E   H.      E  E
|---------------------|---------------||
|-----3-5-------3-5---|---------------||
|-3-5-------3-5-------|---------------||
|---------------------|-5-------5s12\-||


   Interlude
    E. S E E +S  S E E E   E. S +H.        E. S E E +S  S E E E
||-----------------------|---------------|----------------------|
||o----------------------|---------------|----------------------|
||o----------------------|-3--1-(1)------|----------------------|
||--3--1-1-3-(3)-1-1-3-1-|---------------|-3--1-1-3-(3)-1-1-3-1-|


 1.                           2.
  E. S +Q   S S S S +S  E.     E. S +Q   S S S S +S  E.
|---------------------------||-----------------------------|
|---------------3----------o||---------------3-------------|
|-3--1-(1)--3h5---5-(5)-3--o||-3--1-(1)--3h5---5-(5)-3\----|
|---------------------------||-----------------------------|


  E S S E S S +S  E S +S  S E   E S S E S S S S S S +S  S E
|-----------------------------|------------------------------|
|-----------------------------|------------------------------|
|-5-5-5-5-5-5-(5)-5-5-(5)-5-3-|-5-5-5-5-5-5-5-5-5-5-(5)-5-3/-|
|-----------------------------|------------------------------|


             |3-| |--3--|                |---3----|  |3|
  E E E E E +E  S E S E S     E  +T   S. S  E  S  E  S E +E  E  E
|--------------------------|---------10h11p10-------------------------||
|-7-7-7-7-7-(7)------------|-12-(12)----------12----------------------||
|---------------x-3-3-4-4/-|---------------------12S10-9-(9)----------||
|--------------------------|---------------------------------5s12\----||


 Verse
         |--3---|               |--3---|
  q  E e E S E +S  E E   q  E e E S E +S  E E
|----------------------|------5---------------|
|------5---------------|----------------------|
|----------x-2-(2)---5-|-3--------------------|
|-3----------------3---|----------x-0-(0)-1-2-|


         |--3---|          |3| |--3--| |--3---|  |3-|
  q  E e E s E +S  E E   E E S E S E S E S E +S  E +S  E
|----------------------|-----x-3-3------------------------|
|------5---------------|-------------x-3-3----------------|
|------------------2-5-|-3--------------------------------|
|-3--------x-3-(3)-----|-------------------0-(0)-1-(1)-2/-|


    S S e S S e S S e S S e
||--------------------------|
||o-5---5-4---4-3---3-2---2-|
||o---5-----4-----3-----2---|
||--------------------------|


 1.                          2.
  S S e S S e S S e S S e     S S e S S e S S e E  E
|--------------------------||--------------------------||
|-------------------------o||--------------------------||
|-3---3-2---2-1---1-0---0-o||-3---3-2---2-1---1--------||
|---3-----2-----1-----0----||---3-----2-----1---5s12\--||


 Breakdown
                                               |3-| |--3--|
  E. S E. S +S  E S +S  S E   E. S E. S +S  S +E  S E S E S
|---------------------------|-------------------------------|
|---------------------------|-------------------------------|
|-5--5-5--5-(5)-5-5-(5)-5-5-|-5--5-5--5-(5)-5-(5)-x-3-3-4-4-|
|---------------------------|-------------------------------|


                             |-3-| |-3-| |-3-|
  E E E E +S  E S +S  S E    E E E E E E E E E S +s  E
|--------------------------|-----5-----------3-2-(2)---||
|-7-7-7-7-(7)-7-7-(7)-7-7\-|---4---4-------2-----------||
|--------------------------|-5-------5-3-5-------------||
|--------------------------|---------------------------||


   Outro
    E. S E E +S  S E E E   E. S +H.
||-----------------------|---------------|
||o----------------------|---------------|
||o----------------------|-3--1-(1)------|
||--3--1-1-3-(3)-1-1-3-1-|---------------|


                        1.                            2.
  E. S E E +S  S E E E   E. S +E. S S S S S +S  E.     Q  H.
|----------------------|----------------------------||----------:
|----------------------|----------------3----------o||----------:
|----------------------|-3--1-(1)-5-3-5---5-(5)-3--o||-3--1-----:
|-3--1-1-3-(3)-1-1-3-1-|----------------------------||----------:


                                         3/4
  +W           +W           +H.      Q    S S S S E S S S S E
|------------:------------:-------------|---------------------*|
|------------:------------:-------------|-------3-------3-5---*|
|-(1)--------:-(1)--------:-(1)---------|---3-5-----3-5-------*|
|------------:------------:-------------|-5-------------------*|



Duration Legend
---------------
W - whole; H - half; Q - quarter; E - 8th; S - 16th; T - 32nd; X - 64th; 
a - acciaccatura; + - note tied to previous; . - note dotted; .. - note double dotted

*Uncapitalized letters represent notes that are staccato (1/2 duration)
*Irregular groupings are notated above the duration line
*Duration letters will always appear directly above the note/fret number it
 represents the duration for.  
*Duration letters with no fret number below them represent rests.  
*Multi-bar rests are notated in the form Wxn, where n is the number of bars
 to rest for.  
*Low melody durations appear below the staff

Tablature Legend
----------------
 h   - hammer-on
 p   - pull-off
 b   - bend
 pb  - pre-bend
 r   - bend release (if no number after the r, then release immediately)
 /\  - slide into or out of (from/to "nowhere")
 s   - legato slide
 S   - shift slide
  - natural harmonic
[n]  - artificial harmonic
n(n) - tapped harmonic
 ~   - vibrato
 tr  - trill
 T   - tap
 TP  - trem. picking
 PM  - palm muting
\n/  - tremolo bar dip; n = amount to dip
 \n  - tremolo bar down
 n/  - tremolo bar up
/n\  - tremolo bar inverted dip
 =   - hold bend; also acts as connecting device for hammers/pulls
 <>  - volume swell (louder/softer)
 x   - on rhythm slash represents muted slash
 o   - on rhythm slash represents single note slash

Misc Legend
-----------
 |  - bar
||  - double bar
||o - repeat start
o|| - repeat end
*|  - double bar (ending)
 :  - bar (freetime)
 $  - Segno
 &  - Coda
Tempo markers -  = BPM(8/16=s8/s16), where s8 = swing 8ths, s16 = swing 16ths


****************************************************************************
****************************************************************************
            
Submit corrections



        Probinsyana lessons Hard to play? Try these video lessons and learn fast Probinsyana lessons
        
↑ Back to top | Tablatures and chords for acoustic guitar and electric guitar, ukulele, drums are parodies/interpretations of the original songs. You may use it for private study, scholarship, research or language learning purposes only