» » »

Balthazar - Then What Tabs

Artists:  A B C D E F G H I J K L M N O P Q R S T U V W X Y Z # 

Then What Tabs

(ver. 1) Click to play this song!
Balthazar
 Rating:
3.3/5 (28 votes)

 Then What  lessons Tabs too difficult? Try these video lessons and learn fast
 
                / Intro /

      Eb                              Ab
e|-----------------------------------------------------------------|
B|-------------- rhythm guitar ------------------------------------|
G|-----------------------------------------------------------------|
D|----13------------------------------6----------------------------|
A|----13------------------------------6----------------------------|
E|----11------------------------------4----------------------------|

e|-------------- lead guitar --------------------------------------|
B|-----------------------------------------------------------------|
G|----17------15------12------10------10------5-------10------5----|
D|----x-------x-------x-------x-------x-------x-------x-------x----|
A|----15------13------10------8-------8-------3-------8-------3----|
E|-----------------------------------------------------------------|




/ Verse /

      Eb        Ab        Eb        Ab        Bb        Ab
e|--------------------------------------------------------------|
B|----------------- Rhythm guitar ------------------------------|
G|--------------------------------------------------------------|
D|----13--------6---------13--------6---------8---------6-------|
A|----13--------6---------13--------6---------8---------6-------|
E|----11--------4---------11--------4---------6---------4-------|

e|--- after every "then what", this is the lead guitar riff --|
B|------------------------------------------------------------|
G|-------10~-------12-------------10~----10-12----------------|
D|--------------------10~--8~------------------10~--8~--------|
A|------------------------------------------------------------|
E|------------------------------------------------------------|


   Eb                                                       Ab
If someone told you there is no elegant way out of this, then what ‘
    Eb                                                            Ab
And if you're keeping this heart from coming completely apart, then what ‘
           Bb                                                         Ab
And if the rich are begging for more on the doorsteps of the poor, then what ‘
                  Eb
Then what is it I've got ‘


/ intro /


   Eb                                                       Ab
If someone told you there is no elegant way out of this, then what ‘
                             Eb                                                               Ab
Girl, and if you're the last thing that's keeping this heart from coming completely apart, then what ‘
              Bb                                                               Ab
And if in the warmth and rhythm of your skin I lost everything I could win, then what ‘
                  Eb
Then what is it I've got ‘



/ Chorus, both guitars play the intro twice /


Eb                               
I used to think that I, I used to think I had it all,
             Ab
But that was long before I knew what a girl like you could do
Eb
I used to think that I, I used to think I had it all,
             Ab
But that was long before I knew what girl like you could do



/ Bridge /


      Ab               C         Bb
e|-------------------------------------------|
B|------------- Rhythm guitar ---------------|
G|-------------------------------------------|
D|----6----------------10--------8-----------|
A|----6----------------10--------8---- x3 ---|
E|----4----------------8---------6-----------|

           Ab               C    Bb      
And if the eyes that draw you in 
        Ab      C    Bb    
Don't reveal anything
           Ab             C    Bb
And if the soul that lay thin 
          Ab            C    Bb
Upon the sweat on your skin
  Ab           C   Bb    Ab    C   Bb
Retreated deep into your body again
      Ab~
Well, what is it then, what is it then, what is it then ‘

Then what is it I've got ‘


/ Chorus /


AF
            
Submit corrections


        Then What  lessons Hard to play? Try these video lessons and learn fast Then What  lessons
        
↑ Back to top | Tablatures and chords for acoustic guitar and electric guitar, ukulele, drums are parodies/interpretations of the original songs. You may use it for private study, scholarship, research or language learning purposes only