» » »

Balthazar - The Man Who Owns The Place Tabs

Artists:  A B C D E F G H I J K L M N O P Q R S T U V W X Y Z # 

The Man Who Owns The Place Tabs

(ver. 1) Click to play this song!
Balthazar
 Rating:
2.3/5 (26 votes)

 The Man Who Owns The Place  lessons Tabs too difficult? Try these video lessons and learn fast
 
                Melody :

e|-----------------------------------------------------------------------------|
B|-----------------------------------------------------------------------------|
G|-----------------------0--3--2--0-----2--0-----------0-----0--3--2--0-----2--|
D|-----------0--0--2--3--------------3-----------1--1-----3--------------3-----|
A|--------4-----------------------------------4--------------------------------|
E|-----------------------------------------------------------------------------|


Bass :

e|-----------------------------------------------------------------------------|
B|-----------------------------------------------------------------------------|
G|-----------------------------------------------------------------------------|
D|-----3--------------------------------5--3--------------5--4-----------------|
A|--5-----4--5-----------------3--------------4--6--------------6--5-----------|
E|-----------------------------------------------------------------------------|




If you want play both parts, you can play the melody one octave higher :

e|--5--------------0--1--3--6--5--3--1--5--3-----------3--1--3--6--5--3--1--5--|
B|--------2--3--3-----------------------------2--4--4--------------------------|
G|--------------------------------------0-----------------0--------------------|
D|--0--3-----0-----------------------------3-----------------3-----0--------0--|
A|--------4--------------------3--------------4--6--------------6--------------|
E|-----------------------------------------------------------------------------|



AF            
Submit corrections


        The Man Who Owns The Place  lessons Hard to play? Try these video lessons and learn fast The Man Who Owns The Place  lessons
        
↑ Back to top | Tablatures and chords for acoustic guitar and electric guitar, ukulele, drums are parodies/interpretations of the original songs. You may use it for private study, scholarship, research or language learning purposes only