» » »

Balthazar - Nightclub Tabs

Artists:  A B C D E F G H I J K L M N O P Q R S T U V W X Y Z # 

Nightclub Tabs

(ver. 1) Click to play this song!
Balthazar
 Rating:
3.7/5 (27 votes)

 Nightclub  lessons Tabs too difficult? Try these video lessons and learn fast
 
                Intro :
A
F#m, D, A   (x2)

Verse :
F#m              D     A
Crippled by this raw desire
  F#m              D        A
I keep on reaching high and higher
             F#m               D
And now the stars replaced the sun
           A
And there's a woman's face
                 F#m
In each and everyone
         D        A
And it's all so blinding


Chorus :
           F#m        A
A little goes a long way
              D         Bm
A lot of it a long way further
           F#m        A
A little goes a long way
              D         Bm
A lot of it a long way further


Verse :
   F#m             D           A
At first it just affects your skin
            F#m            D        A
But then it takes you over from within
    F#m                 D
It shines out through your eyes
             A
It starts to shine out past the drought
               F#m
Inside of your mouth
         D        A
And it's all so blinding


Chorus :
           F#m        A
A little goes a long way
              D         Bm
A lot of it a long way further
           F#m        A
A little goes a long way
              D         Bm
A lot of it a long way further


Bridge :
A                     F#m        A     D    Bm
    So I'm not going home Babe
             F#m        A     D    Bm
Why should I


Chorus :
           F#m        A
A little goes a long way
              D         Bm
A lot of it a long way further
           F#m        A
A little goes a long way
              D         Bm
A lot of it a long way further


Outro :
F#m, A, D, Bm   (x2)
F#m

LEAD GUITAR


Intro + verses :

     A
e|-------------------------------------|
B|-------------------------------------|
G|-------------------------------------|
D|-------------------------------------|
A|-------4-------4-------4-------4-----|
E|---5-----5-5-----5---5---5-5-5---5---|

     F#m         D                     A
e|-----------------------------------------------------------------------|
B|-----------------------------------------------------------------------|
G|-----------------------------------------------------------------------|
D|-----------------------------------------------------------------------|
A|------------------------9-------9--------4-------4-------4-------4-----|
E|---2---5-2-2---5/10--10---10-10---10-5-----5-5-----5---5---5-5-----5---|


Bridge (violin part) :

     F#m              A            D                Bm
e|-----------------------------------------------------------------------|
B|---1---2---/9---7---2------------1---2---/9---7---2--------------------|
G|----------------------------------------------------4-2----------------|
D|-----------------------------------------------------------------------|
A|-----------------------------------------------------------------------|
E|-----------------------------------------------------------------------|


Outro :

     F#m
e|-------------------------------------|
B|-------------------------------------|
G|-------------------------------------|
D|-------------------------------------|
A|-------------------------------------|
E|---2---5-2-2---5-2---2-5-2-2-2-5-2-2-|


AF            
Submit corrections


        Nightclub  lessons Hard to play? Try these video lessons and learn fast Nightclub  lessons
        
↑ Back to top | Tablatures and chords for acoustic guitar and electric guitar, ukulele, drums are parodies/interpretations of the original songs. You may use it for private study, scholarship, research or language learning purposes only