Home » B » Bahamas »

Bahamas - Your Sweet Touch Chords

Artists:  A B C D E F G H I J K L M N O P Q R S T U V W X Y Z # 

Your Sweet Touch Chords

(ver. 1) Click to play this song!
Bahamas
INTRO:

  *Am
E -5--7-5------
B -5------8-5--
G -5-----------
D -7-----------
A -7-----------
E -5-----------

VERSE:
*Am
Tell me what to say 
   *Am
To make it go away 
         G
And I'll do that
*Am
Tell me what to do 
   *Am
To make it up to you 
         G           G A B
And I'll do that too


CHORUS:
 C             Am
Time means so much 
          G                  Em
If all I have is your sweet touch
           C
And so it goes, 
           Am
And so it goes, 
                Cm         G
Which way I'll never ever know


INSTRUMENTAL:
   Am
E -5--7-5------
B -5------8-5--
G -5-----------
D -7-----------
A -7-----------
E -5-----------
                  Yah de yah de da

   Am
E -5--7-5------
B -5------8-5--
G -5-----------
D -7-----------
A -7-----------
E -5-----------                     Am  G
                  Yah de yah de da

   Am
E -5--7-5------
B -5------8-5--
G -5-----------
D -7-----------
A -7-----------
E -5-----------
                  Yah de yah de da

   Am
E -5--7-5------
B -5------8-5--
G -5-----------
D -7-----------
A -7-----------
E -5-----------                      Am  G
                  Yah de yah de da



VERSE:
Am
Do I hold you back 
   Am
In all the ways I lack 
          G
What ya need dear
     Am
And headed toward the end 
          Am
You were looking for a friend 
               G       G A B
And that ain't me dear


CHORUS:
 C             Am
Time means so much 
          G                  Em
If all I have is your sweet touch
           C
And so it goes, 
           Am
And so it goes, 
                Cm         G
Which way I'll never ever know


INSTRUMENTAL:
   Am
E -5--7-5------
B -5------8-5--
G -5-----------
D -7-----------
A -7-----------
E -5-----------
                  Yah de yah de da

   Am
E -5--7-5------
B -5------8-5--
G -5-----------
D -7-----------
A -7-----------
E -5-----------                     Am  G
                  Yah de yah de da


   Am
E -5--7-5------
B -5------8-5--
G -5-----------
D -7-----------
A -7-----------
E -5-----------
                  Yah de yah de da

   Am
E -5--7-5------
B -5------8-5--
G -5-----------
D -7-----------
A -7-----------
E -5-----------                      Am  G   G A B
                  Yah de yah de da


OUTRO:  (SOLO OVER THESE CHORDS)
Am Am G
Am Am G
Am Am G
Am Am G
Am Am G
Am Am G
Am Am G
Am Am G
*Am *Am G
*Am *Am G
            
Submit corrections

↑ Back to top | Tablatures and chords for acoustic guitar and electric guitar, ukulele, drums are parodies/interpretations of the original songs. You may use it for private study, scholarship, research or language learning purposes only