Home » B » Bahamas »

Bahamas - I Had It All Chords

Artists:  A B C D E F G H I J K L M N O P Q R S T U V W X Y Z # 

I Had It All Chords

(ver. 1) Click to play this song!
Bahamas
               C/G
e|---------------------------------------------------------------------------|
B|---------------------------------------------------------------------------|
G|---------------------------------------------------------------------------|
D|----------2----------------------------------------------------------------|
A|------0-3------------------------------------------------------------------|
E|----3----------------------------------------------------------------------|


This fill transitions Fm to G:
    Fm
e|---------------------------------------------------------------------------|
B|---------------------------------------------------------------------------|
G|------0h2p0---0------------------------------------------------------------|
D|------------3--------------------------------------------------------------|
A|---------------------------------------------------------------------------|
E|---------------------------------------------------------------------------|


         C/G        F                 G
I had it all and my breath held tight
            C/G           F             G
She heard a call kept her up most night
             Am                       D Fm        G     G7
And worst of all wondering what about us was ever right


            C/G            F               G
I stayed at home dreamt of all we might be
          C/G           F                 G
Egypt and Rome, she saw all she could see
            Am             D      Fm             G  G7
Then coming home wondering why she couldn't find me


   F    Em  Dm
Now measure time
   F    Em    Dm
To know what's mine
     F   F    Dm
I'm turning around
    F  F      Em
I'm turning around
             Am   C/G
Turning on a dime


          C               F             G
Done it before dropped it all and I ran
               C             F               G
I slept on the shore woke up cold and tanned
                    Am           D       Fm            G G7
I burst through the door like I was still, still your man


   F    Em  Dm
Now measure time
   F    Em    Dm
To know what's mine
     F   F    Dm
I'm turning around
    F  F      Em
I'm turning around
             Am   C/G
Turning on a dime


         C/G
I had it all            
Submit corrections

↑ Back to top | Tablatures and chords for acoustic guitar and electric guitar, ukulele, drums are parodies/interpretations of the original songs. You may use it for private study, scholarship, research or language learning purposes only