» » »

Bad Religion - Shattered Faith Tabs

Artists:  A B C D E F G H I J K L M N O P Q R S T U V W X Y Z # 

Shattered Faith Tabs

(ver. 2) Click to play this song!
Bad Religion
 Rating:
4/5 (4 votes)
                Guitar 1

Intro
e--------------------------------------------------------------------
B--------------------------------------------------------------------
G--------------------------------------------------------------------
D--77777777--33333333------------55555555--22222222------------------
A--55555555--11111111--33333333--33333333--00000000------------------
E----------------------11111111--------------------------------------
                                         PM........
Verse
e------------------------|---------------------|-----------------------
B------------------------|---------------------|-----------------------
G------------------------|---------------------|-----------------------
D--77777--33---------55--|----------------3-55-|-----------------------
A--55555--11---3333--33--|--1-1-0-0-------1-33-|-----------------------
E--------------1111------|----------3-3-1------|-----------------------

Chorus
e--------------------------------------------------------------------
B--------------------------------------------------------------------
G--------------------------------------------------------------------
D--77777777--33333333------------55555555----------------------------
A--55555555--11111111--33333333--33333333----------------------------
E----------------------11111111--------------------------------------

Guitar 2
e--------------------------------------------------------------------
B--------------------------------------------------------------------
G--------------------------------------------------------------------
D-10-9-7777-7-9-10-9-7777-7-9-888888888-10-9-5-----------------------
A--8-7-5555-5-7--8-7-5555-5-7-333333333-8--7-3-----------------------
E--------------------------------------------------------------------

Bridge
e--------------------------------------------------------------------
B--------------------------------------------------------------------
B--------------------------------------------------------------------
D---12-12-12-12------------------------------------------------------
A--------------------------------------------------------------------
E--------------------------------------------------------------------
The bridge is just the chorus with one of the guitars playing this over it
just listen to the song And you'll hear it.


This Tab should be 100% correct. This is just my interpretation of the song
and full credit goes to Bad religion being the great band that they are.
Shout out to all my peeps at doral academy whooooooo!!!!!!
            
Submit corrections

↑ Back to top | Tablatures and chords for acoustic guitar and electric guitar, ukulele, drums are parodies/interpretations of the original songs. You may use it for private study, scholarship, research or language learning purposes only