» » »

Bad Religion - Fuck Armageddon... This Is Hell! Bass

Artists:  A B C D E F G H I J K L M N O P Q R S T U V W X Y Z # 

Fuck Armageddon... This Is Hell! Bass

(ver. 2) Click to play this song!
Bad Religion
 Rating:
4/5 (4 votes)

 Fuck Armageddon... This Is Hell! lessons Tabs too difficult? Try these video lessons and learn fast
 
                "BAND: BAD RELIGION

RATE ME. BUT DONT STEAL ME!

Standard Tuning (EADG)

Intro w. Flanger
                                        _
G|-------------------------------------  |
D|-------------------------------------  |
A|-------------------------------------  |   x5
E|----0(x8)--------5(x8)---------------  |
                                        -      
Verse
                                        -
G|-------------------------------------  |
D|-------------------------------------  |
A|--7(x6)----5-4-----5-4---------------  |   x6
E|---------------5-------5-------------  |
                                        -
Pre Chorus
                                        -
G|-------------------------------------  |
D|-------------------------------------  |
A|--7(x6)--5(x6)--3(x3)--2(x3)--0(x6)--  |   x1
E|-------------------------------------  |
                                        -
Verse
                                        -
G|-------------------------------------  |
D|-------------------------------------  |
A|--7(x6)----5-4-----5-4---------------  |   x6
E|---------------5-------5-------------  |
                                        -

Pre Chorus 
                                        -
G|-------------------------------------  |
D|-------------------------------------  |
A|--7(x6)--5(x6)--3(x3)--2(x3)--0(x6)--  |   x6
E|-------------------------------------  |
                                        -

Pre Chorus/ Chorus
                                        -
G|-------------------------------------  |
D|-------------------------------------  |
A|--7(x6)--5(x6)--3(x3)--2(x3)--0(x6)--  |  x1
E|-------------------------------------  |
                                       -
G|-------------------------------------  |
D|-------------------------------------  |
A|--3(x3)--5(x3)--7(x6)----------------  |  x2
E|-------------------------------------  |
                                        -

Verse (Under Solo)
                                        -
G|-------------------------------------  |
D|-------------------------------------  |
A|--7(x6)----5-4-----5-4---------------  |   x6
E|---------------5-------5-------------  |
                                        -

Verse
                                        -
G|-------------------------------------  |
D|-------------------------------------  |
A|--7(x6)----5-4-----5-4---------------  |   x6
E|---------------5-------5-------------  |
                                        -

Pre Chorus 
                                        -
G|-------------------------------------  |
D|-------------------------------------  |
A|--7(x6)--5(x6)--3(x3)--2(x3)--0(x6)--  |   x1
E|-------------------------------------  |
                                        -

Verse
                                        -
G|-------------------------------------  |
D|-------------------------------------  |
A|--7(x6)----5-4-----5-4---------------  |   x6
E|---------------5-------5-------------  |
                                        -

Pre Chorus/ Chorus
                                        -
G|-------------------------------------  |
D|-------------------------------------  |
A|--7(x6)--5(x6)--3(x3)--2(x3)--0(x6)--  |  x1
E|-------------------------------------  |
                                       -
G|-------------------------------------  |
D|-------------------------------------  |
A|--3(x3)--5(x3)--7(x6)----------------  |  x5
E|-------------------------------------  |
                                        -
"            
Submit corrections


        Fuck Armageddon... This Is Hell! lessons Hard to play? Try these video lessons and learn fast Fuck Armageddon... This Is Hell! lessons
        
↑ Back to top | Tablatures and chords for acoustic guitar and electric guitar, ukulele, drums are parodies/interpretations of the original songs. You may use it for private study, scholarship, research or language learning purposes only