» » »

Bad Religion - Do The Paranoid Style Chords

Artists:  A B C D E F G H I J K L M N O P Q R S T U V W X Y Z # 

Do The Paranoid Style Chords

(ver. 1) Click to play this song!
Bad Religion
 Rating:
4.3/5 (24 votes)

 Do The Paranoid Style lessons Tabs too difficult? Try these video lessons and learn fast
 
                [Chorus]
        x3                            
G|-----------------|-----------------|
D|-----------------|-----------------|
A|-----------------|-----------------| x2
E|-5-5-5-5-6-6-6-6-|-1-1-1-1-0-0-0-0-|


[Verse]

G|---------------------------------|---------------------------------|
D|---------------------------------|---------------------------------|
A|---------------------------------|-3-3-3-3-3-3-3-3-3-3-3-3-3-3-3-3-|
E|-5-5-5-5-5-5-5-5-5-5-5-5-5-5-5-5-|---------------------------------|

G|---------------------------------|---------------------------------|
D|---------------------------------|---------------------------------|
A|---------------------------------|-----------------7-7-5-5-3-3-2-2-|
E|-1-1-1-1-1-1-1-1-1-1-1-1-1-1-1-1-|-0-0-0-0-0-0-0-0-----------------|

G|---------------------------------|---------------------------------|
D|---------------------------------|---------------------------------|
A|---------------------------------|-3-3-3-3-3-3-3-3-3-3-3-3-3-3-3-3-|
E|-5-5-5-5-5-5-5-5-5-5-5-5-5-5-5-5-|---------------------------------|

G|---------------------------------|---------------------------------|
D|---------------------------------|---------------------------------|
A|---------------------------------|---------------------------------|
E|-1-1-1-1-1-1-1-1-1-1-1-1-1-1-1-1-|-0-0-0-0-0-0-0-0-0-0-0-0-0-0-0-0-|


[Chorus]
        x3                            
G|-----------------|-----------------|
D|-----------------|-----------------|
A|-----------------|-----------------| x2
E|-5-5-5-5-6-6-6-6-|-1-1-1-1-0-0-0-0-|


[Verse]

G|---------------------------------|---------------------------------|
D|---------------------------------|---------------------------------|
A|---------------------------------|-3-3-3-3-3-3-3-3-3-3-3-3-3-3-3-3-|
E|-5-5-5-5-5-5-5-5-5-5-5-5-5-5-5-5-|---------------------------------|

G|---------------------------------|---------------------------------|
D|---------------------------------|---------------------------------|
A|---------------------------------|-----------------7-7-5-5-3-3-2-2-|
E|-1-1-1-1-1-1-1-1-1-1-1-1-1-1-1-1-|-0-0-0-0-0-0-0-0-----------------|

G|---------------------------------|---------------------------------|
D|---------------------------------|---------------------------------|
A|---------------------------------|-3-3-3-3-3-3-3-3-3-3-3-3-3-3-3-3-|
E|-5-5-5-5-5-5-5-5-5-5-5-5-5-5-5-5-|---------------------------------|

G|---------------------------------|---------------------------------|
D|---------------------------------|---------------------------------|
A|---------------------------------|---------------------------------|
E|-1-1-1-1-1-1-1-1-1-1-1-1-1-1-1-1-|-0-0-0-0-0-0-0-0-0-0-0-0-0-0-0-0-|


[Chorus]
        x3                            
G|-----------------|-----------------|
D|-----------------|-----------------|
A|-----------------|-----------------| x4
E|-5-5-5-5-6-6-6-6-|-1-1-1-1-0-0-0-0-|
            
Submit corrections


        Do The Paranoid Style lessons Hard to play? Try these video lessons and learn fast Do The Paranoid Style lessons
        
↑ Back to top | Tablatures and chords for acoustic guitar and electric guitar, ukulele, drums are parodies/interpretations of the original songs. You may use it for private study, scholarship, research or language learning purposes only