» » »

Bad Religion - Doing Time Bass

Artists:  A B C D E F G H I J K L M N O P Q R S T U V W X Y Z # 

Doing Time Bass

(ver. 1) Click to play this song!
Bad Religion
 Rating:
4/5 (4 votes)
                G-----------------------|-----3------| 
D-----------------------|-5-3--53----| 
A----------------3333---|----------5-| 
E-5555-6666-5555--------|------------| 

G-----------------------|-----3------| 
D-----------------------|-5-3--53----| 
A----------------3333---|----------5-| 
E-5555-6666-5555--------|------------| 

G-----------------------|-----3------| 
D-----------------------|-5-3--53----| 
A----------------3333---|----------5-| 
E-5555-6666-5555--------|------------|
            
Submit corrections

↑ Back to top | Tablatures and chords for acoustic guitar and electric guitar, ukulele, drums are parodies/interpretations of the original songs. You may use it for private study, scholarship, research or language learning purposes only