» » »

Bad Religion - Best For You Tabs

Artists:  A B C D E F G H I J K L M N O P Q R S T U V W X Y Z # 

Best For You Tabs

(ver. 1) Click to play this song!
Bad Religion
 Rating:
4/5 (4 votes)
                CREDITS TO Bad Religion FOR MAKING THIS GREAT SONG!!!!!!)


(I don't know the tunings so sorry.)




Intro

--------
--------
-9-9-9-9-9-9---5-7--
-7-7-7-7-7-7---3-5--
--------
--------

^^^^^^^^^^^^^^^^^^^^^^^^
these are the main riffs. they are played all throughout the song i think. 
play with a rhytym and beat. youll get used to it.
VVVVVVVVVVVVVVVVVVVVVVVV

riff

-------------
-------------
-9-9-9-9---11--14----
-7-7-7-7---10--11---
-------------
-------------


outro riff 

(theres a little of this and it is crazy and is played at the end)


------------------------
------------------------
------------------------
------------------------
-----14-14--------14-14-14----------
--15-----------15------------17h19-17h19--17h19---

i dont know how many hammer ons there are and stuff because the song is faded out.. sorry


and once again THANKS TO BAD RELIGION
            
Submit corrections

↑ Back to top | Tablatures and chords for acoustic guitar and electric guitar, ukulele, drums are parodies/interpretations of the original songs. You may use it for private study, scholarship, research or language learning purposes only