Home » B » Badly Drawn Boy »

Badly Drawn Boy - Stone On The Water Live Tabs

Artists:  A B C D E F G H I J K L M N O P Q R S T U V W X Y Z # 

Stone On The Water Live Tabs

(ver. 2) Click to play this song!
Badly Drawn Boy
 Rating:
4.3/5 (27 votes)
                [Intro (x2)]
 [                                               x2][                                x1] 
e|-0-0-0-0-0-0-0-0-0-0-0-0|-0-0-0-0-0-0-0-0-0-0-0-0|-0-0-2-2-0-0-0-0-0-0-0|-0-2-2-0-0-0-|
B|-0-0-0-0-0-0-0-0-0-0-0-0|-0-0-0-0-0-0-0-0-0-0-0-0|-0-0-0-0-0-0-0-0-0-0-0|-0-0-0-0-0-0-|
G|-0-0-0-0-0-0-0-0-0-0-0-0|-1-1-1-1-1-1-1-1-1-1-1-1|-0-0-0-0-0-0-0-0-0-0-0|-0-0-0-0-0-0-|
D|----2-----2-----2-----2-|----2-----2-----2-----2-|----------------------|-------------|
A|--2-----2-----2-----2---|--2-----2-----2-----2---|----------------------|-------------|
E|0-----0-----0-----0-----|0-----0-----0-----0-----|0---0---0-----0-0-0-0-|--0---0---0-0|

[Verse 1]

e|-0-0-0-0-0-0-0-0-0-0-0-0|-0-0-0-0-0-0-0-0-0-0-0-0|-0-0-0-2-2-2-0-0-0-0-0-0|-0-0-0-2-2-2-3-3-3-3-3-3|
B|-0-0-0-0-0-0-0-0-0-0-0-0|-3-3-3-3-3-3-3-3-3-3-3-3|-1-1-1-3-3-3-0-0-0-0-0-0|-1-1-1-3-3-3-3-3-3-3-3-3|
G|-0-0-0-0-0-0-0-0-0-0-0-0|----0-----0-----0-----0-|----0--------0-0-0-0-0-0|----0--------0-0-0-0-0-0|
D|----2-----2-----2-----2-|--2-----2-----2-----2---|--2---0---0-----2-----2-|--2---0---0-----0-----0-|
A|--2-----2-----2-----2---|3-----3-----3-----3-----|0-------0-----2-----2---|0-------0-----2-----2---|
E|0-----0-----0-----0-----|------------------------|------------0-----0-----|------------3-----3-----|

e|------------------------|------------------------|
B|-4-4-4-4-4-4-4-4-4-4-4-4|-4-4-4-4-4-4-4-4-4-4-4-4|
G|-4-4-4-4-4-4-4-4-4-4-4-4|-4-4-4-4-4-4-4-4-4-4-4-4|
D|------------------------|------------------------|
A|2---2-2---2-2---2-------|2---2-2---2-2---2-------|
E|--2-----2-----2---3-3-2-|--2-----2-----2---3-3-2-|


[Chorus]

e|-0-0-0-0-0-0-0-0-0------|-0-0-0-0-0-0-0-0-0|------------------------|
B|-0-0-0-1-1-1-0-0-0-4-4-4|-0-0-0-1-1-1-0-0-0|-4-4-4-4-4-4-4-4-4-4-4-4|
G|-0-0-0----0--------4-4-4|-0-0-0----0-------|-4-4-4-4-4-4-4-4-4-4-4-4|
D|----2---2-------0-------|----2---2-------0-|------------------------|
A|--2---3-------2---2---2-|--2---3-------2---|2---2-2---2-2---2-------|
E|0-----------3-------2---|0-----------3-----|--2-----2-----2---3-3-2-|


[Link]
e|-0-0-2-2-0-0-0-0-0-0-0|-0-2-2-0-0-0-|
B|-0-0-0-0-0-0-0-0-0-0-0|-0-0-0-0-0-0-|
G|-0-0-0-0-0-0-0-0-0-0-0|-0-0-0-0-0-0-|
D|----------------------|-------------|
A|----------------------|-------------|
E|0---0---0-----0-0-0-0-|--0---0---0-0|


Then repeat:
[Verse 2]

e|-0-0-0-0-0-0-0-0-0-0-0-0|-0-0-0-0-0-0-0-0-0-0-0-0|-0-0-0-2-2-2-0-0-0-0-0-0|-0-0-0-2-2-2-3-3-3-3-3-3|
B|-0-0-0-0-0-0-0-0-0-0-0-0|-3-3-3-3-3-3-3-3-3-3-3-3|-1-1-1-3-3-3-0-0-0-0-0-0|-1-1-1-3-3-3-3-3-3-3-3-3|
G|-0-0-0-0-0-0-0-0-0-0-0-0|----0-----0-----0-----0-|----0--------0-0-0-0-0-0|----0--------0-0-0-0-0-0|
D|----2-----2-----2-----2-|--2-----2-----2-----2---|--2---0---0-----2-----2-|--2---0---0-----0-----0-|
A|--2-----2-----2-----2---|3-----3-----3-----3-----|0-------0-----2-----2---|0-------0-----2-----2---|
E|0-----0-----0-----0-----|------------------------|------------0-----0-----|------------3-----3-----|

e|------------------------|------------------------|
B|-4-4-4-4-4-4-4-4-4-4-4-4|-4-4-4-4-4-4-4-4-4-4-4-4|
G|-4-4-4-4-4-4-4-4-4-4-4-4|-4-4-4-4-4-4-4-4-4-4-4-4|
D|------------------------|------------------------|
A|2---2-2---2-2---2-------|2---2-2---2-2---2-------|
E|--2-----2-----2---3-3-2-|--2-----2-----2---3-3-2-|

[Chorus]

e|-0-0-0-0-0-0-0-0-0------|-0-0-0-0-0-0-0-0-0|------------------------|
B|-0-0-0-1-1-1-0-0-0-4-4-4|-0-0-0-1-1-1-0-0-0|-4-4-4-4-4-4-4-4-4-4-4-4|
G|-0-0-0----0--------4-4-4|-0-0-0----0-------|-4-4-4-4-4-4-4-4-4-4-4-4|
D|----2---2-------0-------|----2---2-------0-|------------------------|
A|--2---3-------2---2---2-|--2---3-------2---|2---2-2---2-2---2-------|
E|0-----------3-------2---|0-----------3-----|--2-----2-----2---3-3-2-|


[Outro]
e|-0-0-2-2-0-0-0-0-0-0-0|-0-2-2-0-0-0-|
B|-0-0-0-0-0-0-0-0-0-0-0|-0-0-0-0-0-0-|
G|-0-0-0-0-0-0-0-0-0-0-0|-0-0-0-0-0-0-|
D|----------------------|-------------|
A|----------------------|-------------|
E|0---0---0-----0-0-0-0-|--0---0---0-0|
            
Submit corrections

↑ Back to top | Tablatures and chords for acoustic guitar and electric guitar, ukulele, drums are parodies/interpretations of the original songs. You may use it for private study, scholarship, research or language learning purposes only