» » »

Badflower - Animal Tabs

Artists:  A B C D E F G H I J K L M N O P Q R S T U V W X Y Z # 

Animal Tabs

(ver. 1) Click to play this song!
Badflower
 Rating:
4.3/5 (21 vote)

 Animal lessons Tabs too difficult? Try these video lessons and learn fast
 
                [Intro]

e|---------------------------------------------------------------------------|
B|---------------------------------------------------------------------------|
G|----5b-5p-3-------3------5b-5p3-------3------------------------------------|
D|-----------5-3-5----5-----------5-3-5--------------- X 2 ----5-------------|
A|-------------------------------------------------------------5-------------|
E|-------------------------------------------------------------3-------------|


e|---------------------------------------------------------------------------|
B|---------------------------------------------------------------------------|
G|-----5b-5p-3---3b----------------------------------------------------------|
D|-------------5---5-5-------------------------------------------------------|
A|---------------------------------------------------------------------------|
E|---------------------------------------------------------------------------|


[Riff Starts]

(Guitar 1)

e|---------------------------------------------------------------------------|
B|------5b-5p-3--------3b------------5b-5p-3-------3b------------------------|
G|------5b-5p-3--------3b------------5b-5p-3-------3b------------------------|
D|--------------5--3-5-----5-----------------5-3-5---------------------------|
A|---------------------------------------------------------------------------|
E|---------------------------------------------------------------------------|

(Guitar 2)
(In unison)
e|---------------------------------------------------------------------------|
B|---------------------------------------------------------------------------|
G|---------------------------------------------------------------------------|
D|---------------------------------------------------------------------------|
A|------3b-3p-1--------1--------3b-3p-1-------1b-----------------------------|
E|--------------3--1-3---3--------------3-1-3--------------------------------|


[Verse 1]

e|---------------------------------------------------------------------------|
B|---------------------------------------------------------------------------|
G|---------------------------------------------------------------------------|
D|---------------------------------------------------------------------------|
A|------3b-3p-1--------1--------3b-3p-1-------1b-----------------------------|
E|--------------3--1-3---3--------------3-1-3--------------------------------|


[Chorus]

e|---------------------------------------------------------------------------|
B|---------------------------------------------------------------------------|
G|----5----------------------------------------------------------------------|
D|----5-- X 16 --------------------------------------------------------------|
A|----3----------------------------------------------------------------------|
E|---------------------------------------------------------------------------|

(Guitar 1)

e|---------------------------------------------------------------------------|
B|------5b-5p-3--------3b------------5b-5p-3-------3b------------------------|
G|------5b-5p-3--------3b------------5b-5p-3-------3b------------------------|
D|--------------5--3-5-----5-----------------5-3-5---------------------------|
A|---------------------------------------------------------------------------|
E|---------------------------------------------------------------------------|

(Guitar 2)
(In unison)
e|---------------------------------------------------------------------------|
B|---------------------------------------------------------------------------|
G|---------------------------------------------------------------------------|
D|---------------------------------------------------------------------------|
A|------3b-3p-1--------1--------3b-3p-1-------1b-----------------------------|
E|--------------3--1-3---3--------------3-1-3--------------------------------|

e|------------------------------------------------------------------------------3b---|
B|------------------------------------------------------------------------------3b---|
G|----5-------------3-------------------------3-5b--------------3--------------------|
D|----5-- X 8 ------3-- X 4 ----3-----------5---------5\------5---5b--5\-------------|
A|----3-------------1-----------3-- X 4 --------------5\--------------5\- X 3 -------|
E|------------------------------1---------------------3\--------------3\-------------|


[Verse 2]

e|---------------------------------------------------------------------------|
B|---------------------------------------------------------------------------|
G|---------------------------------------------------------------------------|
D|---------------------------------------------------------------------------|
A|------3b-3p-1--------1--------3b-3p-1-------1b-----------------------------|
E|--------------3--1-3---3--------------3-1-3--------------------------------|


[Chorus]

e|---------------------------------------------------------------------------|
B|---------------------------------------------------------------------------|
G|----5----------------------------------------------------------------------|
D|----5-- X 16 --------------------------------------------------------------|
A|----3----------------------------------------------------------------------|
E|---------------------------------------------------------------------------|

(Guitar 1)

e|---------------------------------------------------------------------------|
B|------5b-5p-3--------3b------------5b-5p-3-------3b------------------------|
G|------5b-5p-3--------3b------------5b-5p-3-------3b------------------------|
D|--------------5--3-5-----5-----------------5-3-5---------------------------|
A|---------------------------------------------------------------------------|
E|---------------------------------------------------------------------------|

(Guitar 2)
(In unison)
e|---------------------------------------------------------------------------|
B|---------------------------------------------------------------------------|
G|---------------------------------------------------------------------------|
D|---------------------------------------------------------------------------|
A|------3b-3p-1--------1--------3b-3p-1-------1b-----------------------------|
E|--------------3--1-3---3--------------3-1-3--------------------------------|

e|------------------------------------------------------------------------------3b---|
B|------------------------------------------------------------------------------3b---|
G|----5-------------3-------------------------3-5b--------------3--------------------|
D|----5-- X 8 ------3-- X 4 ----3-----------5---------5\------5---5b--5\-------------|
A|----3-------------1-----------3-- X 4 --------------5\--------------5\- X 3 -------|
E|------------------------------1---------------------3\--------------3\-------------|

[Bridge]

e|---------------------------------------------------------------------------|
B|----------------------------------------------------------15b--------------|
G|-17b-17p-15--------------15-17b---15-17-------------------15b- X 4 --------|
D|------------17-----15-17----------------15----15-17-----------------17-15--|
A|----------------------------------------------------15-17------------------|
E|---------------------------------------------------------------------------|

e|---------------------------------------------------------------------------|
B|------------------------------------------17b--------15----------15--------|
G|--------------------------------------15--17b- X 4 --15----------15- X 3---|
D|-----------------------15-17----15-17----------------------17-15-----------|
A|-------15-17-----15-17-----------------------------------------------------|
E|-15-18---------------------------------------------------------------------|

e|---------------------------------------------------------------------------|
B|--------------------------17b----------------------------------------------|
G|-----------17b--17-15------------------------------------------------------|
D|---17-15--------------17---------------------------------------------------|
A|---------------------------------------------------------------------------|
E|---------------------------------------------------------------------------|

[Chorus]

e|---------------------------------------------------------------------------|
B|---------------------------------------------------------------------------|
G|--5-5--x-x---------------5-------------------------------------------------|
D|--5-5--x-x-- X 3 --------5-- X 16 -----------------------------------------|
A|--3-3--x-x---------------3-------------------------------------------------|
E|---------------------------------------------------------------------------|

(Guitar 1)

e|---------------------------------------------------------------------------|
B|------5b-5p-3--------3b------------5b-5p-3-------3b------------------------|
G|------5b-5p-3--------3b------------5b-5p-3-------3b------------------------|
D|--------------5--3-5-----5-----------------5-3-5---------------------------|
A|---------------------------------------------------------------------------|
E|---------------------------------------------------------------------------|

(Guitar 2)
(In unison)
e|---------------------------------------------------------------------------|
B|---------------------------------------------------------------------------|
G|---------------------------------------------------------------------------|
D|---------------------------------------------------------------------------|
A|------3b-3p-1--------1--------3b-3p-1-------1b-----------------------------|
E|--------------3--1-3---3--------------3-1-3--------------------------------|

e|------------------------------------------------------------------------------3b---|
B|------------------------------------------------------------------------------3b---|
G|----5-------------3-------------------------3-5b--------------3--------------------|
D|----5-- X 8 ------3-- X 4 ----3-----------5---------5\------5---5b--5\-------------|
A|----3-------------1-----------3-- X 4 --------------5\--------------5\- X 3 -------|
E|------------------------------1---------------------3\--------------3\-------------|

            
Submit corrections


        Animal lessons Hard to play? Try these video lessons and learn fast Animal lessons
        
↑ Back to top | Tablatures and chords for acoustic guitar and electric guitar, ukulele, drums are parodies/interpretations of the original songs. You may use it for private study, scholarship, research or language learning purposes only