» » »

Bachman Turner Overdrive - Flat Broke Love Bass

Artists:  A B C D E F G H I J K L M N O P Q R S T U V W X Y Z # 

Flat Broke Love Bass

(ver. 1) Click to play this song!
Bachman Turner Overdrive
 Rating:
4/5 (4 votes)
                intro:
                      4X
G------------------------
D*----------------------*
A*--5--3----------------*
E---------3--5-----------

verse:
          11x  A              F
G------------|---------------|----------------|
D------------|---------------|----------------|
A----3--5-5--|---------------|----------------|
E--5---------|5-5-5-5-5-5-5-5|1-1-1-1-1-1-1-1-|

solo: same as intro

That's iT. Enjoy!
            
Submit corrections

↑ Back to top | Tablatures and chords for acoustic guitar and electric guitar, ukulele, drums are parodies/interpretations of the original songs. You may use it for private study, scholarship, research or language learning purposes only