» » »

Babyshambles - Blinding Tabs

Artists:  A B C D E F G H I J K L M N O P Q R S T U V W X Y Z # 

Blinding Tabs

(ver. 3) Click to play this song!
Babyshambles
 Rating:
4.3/5 (6 votes)


 Blinding lessons Tabs too difficult? Try these video lessons and learn fast
 
                Intro

Lead (Mik Whitnall)

e|----(7)---(7)---(7)---(7)-----5-----5--5-----------------------|
B|-----7-----7-----7-----7------5-----5--5-----------------------|
G|-----7-----7-----7-----7------5-----5--5-----------------------|
D|---------------------------------------------------------------|
A|---------------------------------------------------------------|
E|-7-7---7-7---7-7---7-7----5-5---5-5----------------------------|

Rhythem (Pete Doherty)

e|----------------7-6-5------------------------------------------|
B|----------------7-6-5------------------------------------------|
G|----------------7-6-5------------------------------------------|
D|----------------9-8-7------------------------------------------|
A|----------------9-8-7------------------------------------------|
E|----------------7-6-5---------------------------0-5-0-6-0------|


Verse

Lead (Mik Whitnall)

e|----(7)---(7)---(7)---(7)-----5-----5-----5-----5--------------|
B|-----7-----7-----7-----7------5-----5-----5-----5--------------|
G|-----7-----7-----7-----7------5-----5-----5-----5--------------|
D|---------------------------------------------------------------| x4
A|---------------------------------------------------------------|
E|-7-7---7-7---7-7---7-7----5-5---5-5---5-5---5-5----------------|

Rhythem (Pete Doherty)

e|-----7-----7-----7-----7------5-----5-----5---5-6--------------|
B|-----7-----7-----7-----7------5-----5-----5---5-6--------------|
G|-----7-----7-----7-----7------5-----5-----5---5-6--------------|
D|-----9-----9-----9-----9------7-----7-----7---7-8--------------| x4
A|-----9-----9-----9-----9------7-----7-----7---7-8--------------|
E|-7-7-7-7-7-7-7-7-7-7-7-7--5-5-5-5-5-5-5-5-5-5-5-6--------------|

Sometimes Pete plays a A#m when going down to the Am
There is a Guitar bit on the 3rd time which is Bm on 2nd fret played arpeggio with some open strings

Chorus  1

B          G           F#   G F#
   Tell me what do you do

B            G           F#           G F#
   Whan they run out of time for you

B        G        F#     G F#
   Where ever you go

B                      G          F#    G   F#   G   F#
   Theres things to be getting on with, on with, on with the... SHOW!

Breakdown
Sorry, haven't worked this out yet but the Rhythem part is still the same

Intro 
Verse x4
Chorus 
Breakdown
Verse x2
Chorus
Bridge (Out You Go)
2nd Breakdown
Verse x2
Outro (Am, A#m, Bm)
            
Submit corrections



        Blinding lessons Hard to play? Try these video lessons and learn fast Blinding lessons
        
↑ Back to top | Tablatures and chords for acoustic guitar and electric guitar, ukulele, drums are parodies/interpretations of the original songs. You may use it for private study, scholarship, research or language learning purposes only