» » »

Babyshambles - I Wish Bass

Artists:  A B C D E F G H I J K L M N O P Q R S T U V W X Y Z # 

I Wish Bass

(ver. 1) Click to play this song!
Babyshambles
 Rating:
4/5 (4 votes)


 I Wish lessons Tabs too difficult? Try these video lessons and learn fast
 
                Babyshambles - I Wish

Its not in perfect order but the bassline in my eyes is 95% correct and if you listen to the song you 
can work out the order.


|---------------|
|---------------| x4
|--------66-----|
|--99-66----44--|

|----------------------------------------------------------------------|
|----------11-11-8-------11-11----6-8----------88----------88----------|
|-----8-11---------11--99-----88---------8--11----11-8--66----8-11-8-6-|
|--99---------------------------------99-------------------------------|

|--------------------------------------------------------------------|
|----------11-11-8--------8-11---------------------------------------|
|-----8-11---------11--99---------8-11----8-11-99-6-4---8-11-99-6-4--|
|--99--------------------------99-------99------------99-------------|


Got no money in my pocket you see... ooh gimmie.......

|--------------------------------------------------------------------|
|----------11-11-8--------8-11----8-6--------11-11-8------8-11-------|
|-----8-11---------11--99------88--------8-11-------11-99---------6-9|
|--99---------------------------------99-----------------------88----|

|------------------------------------------------------|
|----------88---------88-------------------------------|
|-----8-11---11-8--66----8-11-8-6----------------------|
|--99--------------------------------------------------|

|----------------------------------------------------------------------|
|----------11-11-8-------11-11----6-8----------88----------88----------|
|-----8-11---------11--99-----88---------8--11----11-8--66----8-11-8-6-|
|--99---------------------------------99-------------------------------|

|---------------|
|---------------| x4
|--------66-----|
|--99-66----44--|

|--------------------------------------------------------------------|
|----------11-11-8--------8-11----8-6--------11-11-8------8-11-------|
|-----8-11---------11--99------88--------8-11-------11-99---------6-9|
|--99---------------------------------99-----------------------88----|

|------------------------------------------------------|
|----------88---------88-------------------------------|
|-----8-11---11-8--66----8-11-8-6----------------------|
|--99--------------------------------------------------|


|---------------|
|---------------| x4
|--------66-----|
|--99-66----44--|
            
Submit corrections



        I Wish lessons Hard to play? Try these video lessons and learn fast I Wish lessons
        
↑ Back to top | Tablatures and chords for acoustic guitar and electric guitar, ukulele, drums are parodies/interpretations of the original songs. You may use it for private study, scholarship, research or language learning purposes only