» » »

Baby Metal - White Love Tabs

Artists:  A B C D E F G H I J K L M N O P Q R S T U V W X Y Z # 

White Love Tabs

(ver. 1) Click to play this song!
Baby Metal
 Rating:
4.2/5 (22 votes)

 White Love  lessons Tabs too difficult? Try these video lessons and learn fast
 
                Intro:                      +
C#|---------------------------------------------------------------------------|
G#|---------------------------------------------------------------------------|
E |---------------------------------------------------------------------------|
B |--3--5--2--7-5-3--2--7---7-------------------------------------------------|
F#|--3--5--2--7-5-3--2--7-----------------------------------------------------|
B |--3--5--2--7-5-3--2--7-----------------------------------------------------|

C#|-------------------------------------------------------------------------------------|
G#|-------------------------------------------------------------------------------------|
E |-----------------------9-------------------------------------------------------------|
B |--4--2--0--2--4--2--0--9-------------------------------------------------------------|
F#|--4--2--0--2--4--2--0--7-------------------------------------------------------------|
B |--4--2--0--2--4--2--0----------------------------------------------------------------|

Verse:* *  * *  *  *  * *  *  *  *  * *  *  *  * *  *  *  *  * *  *  *  * *  *
C#|---------------------------------------------------------------------------|
G#|---------------------------------------------------------------------------|
E |---------------------------------------------------------------------------|
B |---------------------------------------------------------------------------|
F#|---------------------------------------------------------------------------|
B |--4--4--4-4--4--4--4-4--4--4--4--4-4--4--4--4-4--4--0--0--0-0--0--0--0-0--0|

     *  *  * *  *  *  * *  *  *  *  * *  *  *  * *  *  *  *  * *  *  *  * *  *
C#|---------------------------------------------------------------------------|
G#|---------------------------------------------------------------------------|
E |---------------------------------------------------------------------------|
B |---------------------------------------------------------------------------|
F#|---------------------------------------------------------------------------|
B |--2--2--2-2--2--2--2-2--2--0--0--0-0--0--0--0-0--0--2--2--2-2--2--2--2-2--2|

     *  *  * *  *  *  * *  *
C#|---------------------------------------------------------------------------|
G#|---------------------------------------------------------------------------|
E |-----------------------------------------9---------------------------------|
B |--------------------------------6------------------------------------------|
F#|------------------------------7-------6------------------------------------|
B |--7--7--7-7--7--7--7-7--7--7-------6---------------------------------------|

Repeat Verse

Pre Chorus:
        * * *  * *  *  *  * *  *  * * *  * *  *  *  * *  *
C#|---------------------------------------------------------------------------|
G#|---------------------------------------------------------------------------|
E |--6------------------------------------------------------------------------|
B |--6------------------------------------------------------------------------|
F#|--4------------------------------------------------------------------------|
B |------0-0-0--0-0--0--0--0-0--0--0-0-0--0-0--0--0--0-0--0-------------------|

        * * *  * *  *  *  * *  *  * * *  * *  *  *  * *  *
C#|---------------------------------------------------------------------------|
G#|-------------------------------------------------------------14-12-14-15---|
E |--6------------------------------------------------------------------------|
B |--6------------------------------------------------------------------------|
F#|--4-----------------------------2-2-2--2-2--2--2--2-2--2-------------------|
B |------0-0-0--0-0--0--0--0-0--0---------------------------------------------|

Chorus (Lead):
C#|------12----------------------------------------------12-------------------|
G#|--------------------------12---13-12-13-15-13-12---------------------------|
E |--14-------12-------------------------------------14-------13--14-16-17-14-|
B |----------------14-12-14---------------------------------------------------|
F#|---------------------------------------------------------------------------|
B |---------------------------------------------------------------------------|

C#|-------12-------------------20-19-17---------------------------------------|
G#|-------------------------------------20-18-17------------------------------|
E |--14-------------14-16-17---------------------19-17----17-19---------------|
B |-------------14-------------------------------------19---------------------|
F#|---------------------------------------------------------------------------|
B |---------------------------------------------------------------------------|

C#|---------------------------------------------------------------------------|
G#|---10-9-17---12------------------------------------------------------------|
E |----------------14-13-14---------------------------------------------------|
B |---7--6/14-----------------------------------------------------------------|
F#|---------------------------------------------------------------------------|
B |---------------------------------------------------------------------------|

Chorus (Rhythm):
C#|---------------------------------------------------------------------------|
G#|---------------------------------------------------------------------------|
E |---------------------------------------------------------------------------|
B |--3--5--2--7--3--2--7---3--2--10--9--7--5--3--2--7-------------------------|
F#|--3--5--2--7--3--2--7---3--2--10--10-7--5--3--2--7-------------------------|
B |--3--5--2--7--3--2--7---3--2--10--9--7--5--3--2--7-------------------------|

Post Chorus:              *** *                         *** *
C#|---------------------------------------------------------------------------|
G#|---------------------------------------------------------------------------|
E |---------------------------------------------------------------------6-----|
B |--4--4--4-4--4--4--4---------4-4-2--4--4--4-4--4--4------------------6-----|
F#|--4--4--4-4--4--4--4---------4-4-2--4--4--4-4--4--4----------4-4-4-4-4-----|
B |--4--4--4-4--4--4--4---444-4-4-4-2--4--4--4-4--4--4---000-0----------------|

Repeat Post Chorus 3 more times

Chorus 2 (Lead)(Keep shredding the notes in time to the music):
C#|--17---19-20-19-20--22-24--17--16--20--19--17------------------------------|
G#|---------------------------------------------------------------------------|
E |--14---16-17-16-17--19-21--14--13--17--16--14------------------------------|
B |---------------------------------------------------------------------------|
F#|---------------------------------------------------------------------------|
B |---------------------------------------------------------------------------|

C#|-------12-------------------20-19-17---------------------------------------|
G#|-------------------------------------20-18-17------------------------------|
E |--14-------------14-16-17---------------------19-17----17-19---------------|
B |-------------14-------------------------------------19---------------------|
F#|---------------------------------------------------------------------------|
B |---------------------------------------------------------------------------|

C#|-----12-------------12---------12------------------------------------------|
G#|---------------------------------------------------------------------------|
E |--14-----14-13---14-----14-13----------------------------------------------|
B |---------------------------------------------------------------------------|
F#|---------------------------------------------------------------------------|
B |---------------------------------------------------------------------------|

Chorus 2 (Rhythm):
C#|---------------------------------------------------------------------------|
G#|---------------------------------------------------------------------------|
E |---------------------------------------------------------------------------|
B |--3--5--2--7--3--2--7--3--2--10-9--7-5--3--2--3--2-------------------------|
F#|--3--5--2--7--3--2--7--3--2--10-10-7-5--3--2--3--2-------------------------|
B |--3--5--2--7--3--2--7--3--2--10-9--7-5--3--2--3--2-------------------------|

Outro:                               *** * *
C#|---------------------------------------------------------------------------|
G#|---------------------------------------------------------------------------|
E |---------------------------------------------------------------------------|
B |--3--5--2--7-5-3--5--2--7-5-3--3----------3--------------------------------|
F#|--3--5--2--7-5-3--5--2--7-5-3--3----------3--------------------------------|
B |--3--5--2--7-5-3--5--2--7-5-3--3--333-3-3-3--------------------------------|            
Submit corrections


        White Love  lessons Hard to play? Try these video lessons and learn fast White Love  lessons
        
↑ Back to top | Tablatures and chords for acoustic guitar and electric guitar, ukulele, drums are parodies/interpretations of the original songs. You may use it for private study, scholarship, research or language learning purposes only