» » »

Baby Metal - From Dusk Till Dawn Tabs

Artists:  A B C D E F G H I J K L M N O P Q R S T U V W X Y Z # 

From Dusk Till Dawn Tabs

(ver. 1) Click to play this song!
Baby Metal
 Rating:
4.4/5 (5 votes)

 From Dusk Till Dawn  lessons Tabs too difficult? Try these video lessons and learn fast
 
                [Intro]
                                       *  *
e|----------------------------------------------------------------------------------|
b|----------------------------------------------------------------------------------|
G|----------------------------------------------------------------------------------|
D|-------------------------------------------7-----7-----7---7-7---4-4-4-4--------6-|
A|--4-----4-----4---4-4---4-4-4-4---4--------7-----7-----7---7-7---4-4-4-4-----4----|
E|--4-----4-----4---4-4---4-4-4-4---4--------5---5-5---5-5---5-5---2-2-2-2--2-------|
B|--2---2-2---2-2---2-2---2-2-2-2---2--2--2-----------------------------------------|

                                       *  *
e|----------------------------------------------------------------------------------|
b|----------------------------------------------------------------------------------|
G|----------------------------------------------------------------------------------|
D|-------------------------------------------7-----7-----7---7-7---4-4-4-4------7-6-|
A|--4-----4-----4---4-4---4-4-4-4---4--------7-----7-----7---7-7---4-4-4-4----4-----|
E|--4-----4-----4---4-4---4-4-4-4---4--------5---5-5---5-5---5-5---2-2-2-2--2-------|
B|--2---2-2---2-2---2-2---2-2-2-2---2--2--2-----------------------------------------|

Pre Chorus
e|---------------------------------------------------------------------------|
b|---------------------------------------------------------------------------|
G|-------------------------------------------------------6--8--9--11---------|
D|---------------------------------------------------------------------------|
A|--4--4-4--4-4--4-4--4-4--4-4--4-4--4-4--4-4--4-4--4-4--4--6--7--9----------|
E|--4--4-4--4-4--4-4--4-4--4-4--4-4--4-4--4-4--4-4--4-4----------------------|
B|--2--2-2--2-2--2-2--2-2--2-2--2-2--2-2--2-2--2-2--2-2----------------------|

Chorus
e|---------------------------------------------------------------------------|
b|---------------------------------------------------------------------------|
G|---------------------------------------1-----------------------------------|
D|----------7---7-----------7---4------4------------7---7-----------7---4----|
A|--4---7---7---7---4---7---7---4----4------4---7---7---7---4---7---7---4----|
E|--4---7---5---5---4---7---5---2--2--------4---7---5---5---4---7---5---2----|
B|--2---5-----------2---5-------------------2---5-----------2---5------------|

Breakdown
e|---------------------------------------------------------------------------|
b|---------------------------------------------------------------------------|
G|---------------------------------------------------------------------------|
D|---------------------------------------------------------------------------|
A|--4---4---4--------4---4----------------4---4---4----------2--------------x|
E|--4---4---4---5br--4---4--7--4--5-------4---4---4------2-4----------------x|
B|--2---2---2--------2---2----------------2---2---2----2---------3br--3br-1-x|


e|---------------------------------------------------------------------------|
b|---------------------------------------------------------------------------|
G|-----------------------------------------------------4---------------------|
D|-------------------------------------------------------4-6-7---7--7--------|
A|--4---4---4--------4---4----------------4---4---4--------------7--7--7--7--|
E|--4---4---4---5br--4---4--7--4--5-------4---4---4--------------5--5--7--7--|
B|--2---2---2--------2---2----------------2---2---2--------------------5--5--|

Key-change Chorus(Standard)       * * * *
e|---------------------------------------------------------------------------|
b|---------------------------------------------------------------------------|
G|----------------------------3----------------------------------------------|
D|----------------------------3-----------(x2)-------------------------------|
A|-1--3---5---5---1---3---5---1----------------------------------------------|
E|-1--3---5---5---1---3---5--------------------------------------------------|
B|----1---3---3-------1---3-------1-1-1-1------------------------------------|


Key-change Chorus(Half Step Down)  * * * *
eb|---------------------------------------------------------------------------|
bb|---------------------------------------------------------------------------|
Gb|-----------------------------2---------------------------------------------|
Db|-----------------------------2----------(x2)-------------------------------|
Ab|-2---4---6---6---2---4---6---0---------------------------------------------|
Eb|-2---4---6---6---2---4---6-------------------------------------------------|
Bb|-0---2---4---4---0---2---4------2-2-2-2------------------------------------|            
Submit corrections


        From Dusk Till Dawn  lessons Hard to play? Try these video lessons and learn fast From Dusk Till Dawn  lessons
        
↑ Back to top | Tablatures and chords for acoustic guitar and electric guitar, ukulele, drums are parodies/interpretations of the original songs. You may use it for private study, scholarship, research or language learning purposes only