» » »

Baby Metal - Chigau Tabs

Artists:  A B C D E F G H I J K L M N O P Q R S T U V W X Y Z # 

Chigau Tabs

(ver. 1) Click to play this song!
Baby Metal
 Rating:
2.9/5 (28 votes)

 Chigau  lessons Tabs too difficult? Try these video lessons and learn fast
 
                Intro fades in:
C#|--------------------------------------------------------------------------|
G#|--------------------------------------------------------------------------|
E |--------------------------------------------------------------------------|
B |--0-----------------------------------------------------------------------|
F#|--0-----------------------------------------------------------------------|
B |--0-----------------------------------------------------------------------|

Verse A:
C#|--------------------------------------------------------------------------|
G#|--------------------------------------------------------------------------|
E |--------------------------------------------------------------------------|
B |--5-5---5-5-5---5-5-5---5-5-5---5-1-1---1-1-1---1-3-3---3-3-3-------------|
F#|--5-5---5-5-5---5-5-5---5-5-5---5-1-1---1-1-1---1-3-3---3-3-3-------------|
B |--5-5---5-5-5---5-5-5---5-5-5---5-1-1---1-1-1---1-3-3---3-3-3-------------|

C#|--------------------------------------------------------------------------|
G#|--------------------------------------------------------------------------|
E |--------------------------------------------------------------------------|
B |-3-5-5---5-5-5---5-5-5---5-5-5---5-1-1---1-1-1---1-3-3---3-3-3------------|
F#|-3-5-5---5-5-5---5-5-5---5-5-5---5-1-1---1-1-1---1-3-3---3-3-3------------|
B |-3-5-5---5-5-5---5-5-5---5-5-5---5-1-1---1-1-1---1-3-3---3-3-3------------|


Verse B:
(First 2 chords are quicker)
C#|--10-10---10--10--10--10--10--10--10--10--10--10--10--9--9--9-------------|
G#|--8--8----8---8---8---8---8---8---8---8---8---8---8---7--7--7-------------|
E |--7--7----7---7---7---7---7---7---7---7---7---7---7---6--6--6-------------|
B |--------------------------------------------------------------------------|
F#|--------------------------------------------------------------------------|
B |--------------------------------------------------------------------------|
(First 3 chords are quicker)
C#|-9--10-10---10--10--10--10--10--10--10--10--10--10--9-9-9-9-9-------------|
G#|-7--8--8----8---8---8---8---8---8---8---8---8---8---7-7-7-7-7-------------|
E |-6--7--7----7---7---7---7---7---7---7---7---7---7---6-6-6-6-6-------------|
B |--------------------------------------------------------------------------|
F#|--------------------------------------------------------------------------|
B |--------------------------------------------------------------------------|

Verse C:
C#|--------------------------------------------------------------------------|
G#|--------------------------------------------------------------------------|
E |--------------------------------------------------------------------------|
B |--5-5---5-5-5---5-5-5---5-5-5---5-1-1---1-1-1---1-3-3---3-3-3-------------|
F#|--5-5---5-5-5---5-5-5---5-5-5---5-1-1---1-1-1---1-3-3---3-3-3-------------|
B |--5-5---5-5-5---5-5-5---5-5-5---5-1-1---1-1-1---1-3-3---3-3-3-------------|

C#|--------------------------------------------------------------------------|
G#|--------------------------------------------------------------------------|
E |--------------------------------------------------------------------------|
B |-3-5-5---5-5-5---5-5-5---5-5-5---5-1---1-1---1-1-3------------------------|
F#|-3-5-5---5-5-5---5-5-5---5-5-5---5-1---1-1---1-1-3------------------------|
B |-3-5-5---5-5-5---5-5-5---5-5-5---5-1---1-1---1-1-3------------------------|

Chorus:
C#|--------------------------------------------------------------------------|
G#|--------------------------------------------------------------------------|
E |--------------------------------------------------------------------------|
B |--5---8---1---3--4--5---8---1---3--4--------------------------------------|
F#|--5---8---1---3--5--5---8---1---3--5--------------------------------------|
B |--5---8---1---3--4--5---8---1---3--4--------------------------------------|

Post Chorus:
(After each chord place your hands on the strings to kill the sound)
C#|--------------------------------------------------------------------------|
G#|--------------------------------------------------------------------------|
E |--------------------------------------------------------------------------|
B |--5-5-5-5-5-5-5-5-1-1-1-1-1-1-1-1-5-5-5-5-5-5-5-5-3-3-3-3-4-4-4-4---------|
F#|--5-5-5-5-5-5-5-5-1-1-1-1-1-1-1-1-5-5-5-5-5-5-5-5-3-3-3-3-5-5-5-5---------|
B |--5-5-5-5-5-5-5-5-1-1-1-1-1-1-1-1-5-5-5-5-5-5-5-5-3-3-3-3-4-4-4-4---------|

Verse 2:
C#|--15----15----17----18----15----15----14----14----15----15----17----18----17----17----14-|
G#|-----15----15----15----15----15----15----15----15----15----15----15----15----15----15----|
E |-----------------------------------------------------------------------------------------|
B |-----------------------------------------------------------------------------------------|
F#|-----------------------------------------------------------------------------------------|
B |-----------------------------------------------------------------------------------------|

Verse A

Pre Chorus: x2
         **  *** * *** *** * *** *** * *** ***
C#|--------------------------------------------------------------------------|
G#|--------------------------------------------------------------------------|
E |--------------------------------------------------------------------------|
B |-1-0----------------------------------------------------------------------|
F#|-1-0----------------------------------------------------------------------|
B |-1-0--000-000-0-000-000-0-000-000-0-000-000-------------------------------| 

Chorus again

Post Chorus 2:      *** * *** * *** * *** * +
C#|--------------------------------------------------------------------------|
G#|--------------------------------------------------------------------------|
E |--------------------------------------------------------------------------|
B |--5----5----5----------------------------5--------------------------------|
F#|--5----5----5-------------------------------------------------------------|
B |--5----5----5----555-5-555-5-555-5-555-5----------------------------------|

Breakdown:      +                    *** *** *** ***
C#|--------------------------------------------------------------------------|
G#|--------------------------------------------------------------------------|
E |--------------------------------------------------------------------------|
B |--0--0-1--0--3---0--1--0--0-1--0------------------------------------------|
F#|--0--0-1--0------0--1--0--0-1--0------------------------------------------|
B |--0--0-1--0------0--1--0--0-1--0--000-000-000-000-------------------------|

                +                   +
C#|--------------------------------------------------------------------------|
G#|--------------------------------------------------------------------------|
E |--------------------------------------------------------------------------|
B |--0--0-1--0--3---0--1--0--0-1--0--12\-------------------------------------|
F#|--0--0-1--0------0--1--0--0-1--0------------------------------------------|
B |--0--0-1--0------0--1--0--0-1--0------------------------------------------|

     *  * *  *  *  * *  *  *  * *  *  *  * *  *
C#|--------------------------------------------------------------------------|
G#|--------------------------------------------------------------------------|
E |--------------------------------------------------------------------------|
B |--------------------------------------------------------------------------|
F#|--------------------------------------------------------------------------|
B |--0--0-1--0--4--4-2--1--0--0-1--0--4--4-0--1------------------------------|

     *  * *  *  *  * *  * 
C#|--------------------------------------------------------------------------|
G#|--------------------------------------------------------------------------|
E |--------------------------------------------------------------------------|
B |------------------------4-------------------------------------------------|
F#|------------------------5-------------------------------------------------|
B |--0--0-1--0--4--4-2--1--4-------------------------------------------------|

Post Breakdown:
C#|-------------------------------------------------10-8---------------------|
G#|------------------------------------------------------11-10-8-10-11-------|
E |--------------------------------------------------------------------------|
B |--5---3---2---1--3-4-5---3---2---1--1-1--1-1-3----------------------------|
F#|--5---3---3---1--3-5-5---3---3---1--1-1--1-1-3----------------------------|
B |--5---3---2---1--3-4-5---3---2---1--1-1--1-1-3----------------------------|

Final Chorus:
C#|--------------------------------------------------------------------------|
G#|--------------------------------------------------------------------------|
E |--------------------------------------------------------------------------|
B |--5~~~8~~~1---3--4-x------------------------------------------------------|
F#|--5~~~8~~~1---3--5-x------------------------------------------------------|
B |--5~~~8~~~1---3--4-x------------------------------------------------------|

Chorus
Post Chorus

Finish on
C#|--------------------------------------------------------------------------|
G#|--------------------------------------------------------------------------|
E |--------------------------------------------------------------------------|
B |--5~~~--------------------------------------------------------------------|
F#|--5~~~--------------------------------------------------------------------|
B |--5~~~--------------------------------------------------------------------|            
Submit corrections


        Chigau  lessons Hard to play? Try these video lessons and learn fast Chigau  lessons
        
↑ Back to top | Tablatures and chords for acoustic guitar and electric guitar, ukulele, drums are parodies/interpretations of the original songs. You may use it for private study, scholarship, research or language learning purposes only