Home » B » Babes In Toyland »

Babes In Toyland - Sweet Tabs

Artists:  A B C D E F G H I J K L M N O P Q R S T U V W X Y Z # 

Sweet Tabs

(ver. 1) Click to play this song!
Babes In Toyland
 Rating:
4/5 (4 votes)
                
Babes In Toyland - Sweet 69 (i dont know why they called it 'sweet' because i put the correct title)

this is the first babes in toyland tab here. 
standard tuning.
very easy song, the rhythm is the same all the way through.

RIFF 1 

E-------------------------
B-------------------------
G-9----------9--9---------
D-9--8--9-9--9--9-8-8-9-9-
A-7--8--9-9--7--7-8-8-9-9-
E----6--7-7-------6-6-7-7-

RIFF 2

E-------------------------
B-------------------------
G-------------------------
D-2--5--7-7--2--2-5-5-7-7-
A-2--5--7-7--2--2-5-5-7-7-
E-0--3--5-5--0--0-3-3-5-5-

INTERLUDE

E------------------------
B------------------------
G------------------------
D------------------------
A-7---------7--7---------
E---6--7-7-------6-6-7-7-

just mess around with the order. riff 1 is the verse, riff 2 is the chorus and the interlude is the quiet bit... if you know the song you'll know what bit i mean.
            
Submit corrections

↑ Back to top | Tablatures and chords for acoustic guitar and electric guitar, ukulele, drums are parodies/interpretations of the original songs. You may use it for private study, scholarship, research or language learning purposes only