Home » A » Ayo »

Ayo - Down On My Knees Bass

Artists:  A B C D E F G H I J K L M N O P Q R S T U V W X Y Z # 

Down On My Knees Bass

(ver. 1) Click to play this song!
Ayo
 Rating:
4.3/5 (28 votes)
                [Chorus/Verse]

Repeat this until the break at around 2:37.

   Em                           Am
G|----------------------------|----------------------------|
D|-----2-2--0--2--------------|-----7-7--5--7--------------|
A|----------------------------|----------------------------|
E|--0-----------------x--0----|--5-----------------x--5----|

   Bm                           Em
G|----------------------------|-----9-9--7--9--------------|
D|-----9-9--7--9--------------|------------------9--5------|
A|----------------------------|--7-------------7-------7--5|
E|--7-----------------x--7----|----------------------------|


[Break]

If you count each bar in eighth notes with 1 + 2 + etc. the notes should be played on 2 and 4.
 
  1  +  2  +  3  +  4  +                            
G|------------------------|------------------------|
D|------------------2-----|------------------7-----|
A|------------------------|------------------------|
E|------0-----------------|------5-----------------|

G|------------------------|------------------9-----|
D|------------------9-----|------------------------|
A|------------------------|------7-----------------|
E|------7-----------------|------------------------|


[Chorus/Verse]

G|----------------------------|----------------------------|
D|-----2-2--0--2--------------|-----7-7--5--7--------------|
A|----------------------------|----------------------------|
E|--0-----------------x--0----|--5-----------------x--5----|

G|----------------------------|-----9-9--7--9--------------|
D|-----9-9--7--9--------------|------------------9--5------|
A|----------------------------|--7-------------7-------7--5| 1x
E|--7-----------------x--7----|----------------------------|


[Outro]

G|----------------------------|----------------------------|
D|----------------------------|----------------------------|
A|----------------------------|----------------------------|
E|--0-----------------x--0----|--5-----------------x--5----|

G|----------------------------|----------------------------|
D|----------------------------|----------------------------|
A|----------------------------|--7-----------------x--7----| 2x
E|--7-----------------x--7----|----------------------------|
            
Submit corrections

↑ Back to top | Tablatures and chords for acoustic guitar and electric guitar, ukulele, drums are parodies/interpretations of the original songs. You may use it for private study, scholarship, research or language learning purposes only