» » »

Avril Lavigne - Bitchin Summer Tabs

Artists:  A B C D E F G H I J K L M N O P Q R S T U V W X Y Z # 

Bitchin Summer Tabs

(ver. 2) Click to play this song!
Avril Lavigne
 Rating:
3.7/5 (22 votes)

 Bitchin Summer lessons Tabs too difficult? Try these video lessons and learn fast
 
                CAPO 1

Intro:

Uh oh oh oh
e------------------------------------------------------------------|
B--------------------------------------------0h1p0-----------------|
G--------0-------------0----------0-----------------0--------------|
D-----0h2----------0h2--------0h2----------------------------------|
A------------3-3-3----------0--------------------------------------|
E----1---------------------------------3-3-3-----------------------|

Uh oh oh
e------------------------------------------------------------------|
B--------------------------------------------0h1-------------------|
G--------0-------------0----------0--------------------------------|
D-----0h2----------0h2--------0h2----------------------------------|
A------------3-3-3----------0--------------------------------------|
E----1---------------------------------3-3-3-----------------------|

Verse:

Everyone is waiting on the bell (on the bell)
e------------------------------------------------------------------|
B--------------------------------------------0h1p0-----------------|
G--------0-------------0----------0-----------------0--------------|
D-----0h2----------0h2--------0h2----------------------------------|
A------------3-3-3----------0--------------------------------------|
E----1---------------------------------3-3-3-----------------------|

A couple seconds we'll be raising hell (raising hell)
e------------------------------------------------------------------|
B--------------------------------------------0h1-------------------|
G--------0-------------0----------0--------------------------------|
D-----0h2----------0h2--------0h2----------------------------------|
A------------3-3-3----------0--------------------------------------|
E----1---------------------------------3-3-3-----------------------|

The sun is shining down, the school is finally out
e------------------------------------------------------------------|
B--------------------------------------------0h1p0-----------------|
G--------0-------------0----------0-----------------0--------------|
D-----0h2----------0h2--------0h2----------------------------------|
A------------3-3-3----------0--------------------------------------|
E----1---------------------------------3-3-3-----------------------|

Nothing matters so we might as well (might as well)
e------------------------------------------------------------------|
B--------------------------------------------0h1-------------------|
G--------0-------------0----------0--------------------------------|
D-----0h2----------0h2--------0h2----------------------------------|
A------------3-3-3----------0--------------------------------------|
E----1---------------------------------3-3-3-----------------------|

Pre-Chorus:

Everybody's baking in the sun
e----------------------------|
B----------------------------|
G--------0-------------0-----|
D-----0h2----------0h2-------|
A------------3-3-3-----------|
E----1-----------------------|

Come and party do it while we're young
e-----------------------------|
B------------------0h1p0------|
G-------0-----------------0---|
D---0h2-----------------------|
A-0---------------------------|
E------------3-3-3------------|

Move your body when you hear the drum
e----------------------------|
B----------------------------|
G--------0-------------0-----|
D-----0h2----------0h2-------|
A------------3-3-3-----------|
E----1-----------------------|

So put your hands up
e-----------------------------|
B-----------------------------|
G-------0---------------------|
D---0h2-----------------------|
A-0---------------------------|
E------------3~---------------|


Chorus:
                   F       C
It's gonna be a b**chin' summer
  Am                     G
We'll be living fast kicking ass together
        F       C
like high school lovebirds
  Am                 G
Gonna have a blast make it last forever

        F          C
I'll pick you up at the liquor store
  Am                     G
Hurry up we can fit one more
      F       C
It's now or never
      Am                 G*mute*
It's gonna gonna be be a b**chin' summer

   F     C    Am       G
Oh oh oh oh, oh oh oh, b**chin' summer
   F     C    Am       G *mute*
Oh oh oh oh, oh oh oh, b**chin' summer


(You can use the same picking patterns for the verses and
pre-chorus again if you wanna, but I like to use the chords)


Verse:
  F              C             Am          G
Throwing empty bottles in the fire
   F               C            Am           G
Whiskey's got us singing like a choir
 F               C    Am              G
We're all gonna run when the police come
    F             C          Am       G
But in the moment we are so alive


Pre-Chorus:
 F            C
Everybody's baking in the sun
 Am            G
Come and party do it while we're young
 F             C
Move your body when you hear the drum
Am                G*mute*
So put your hands up


Chorus:
                   F       C
It's gonna be a b**chin' summer
  Am                     G
We'll be living fast kicking ass together
        F       C
like high school lovebirds
  Am                 G
Gonna have a blast make it last forever

        F          C
I'll pick you up at the liquor store
  Am                     G
Hurry up we can fit one more
      F       C
It's now or never
      Am                 G*mute*
It's gonna gonna be be a b**chin' summer

   F     C    Am       G
Oh oh oh oh, oh oh oh, b**chin' summer
   F     C    Am       G *mute*
Oh oh oh oh, oh oh oh, b**chin' summer

Bridge:
     F                       C
Right here at the beach, the party don't stop
  Am                            G
If we don't get harassed by the motherf**kin' cops
  F                     C
A quarter tank of gas, About half a pack
   Am                            G
My cellphone's dying but there?s no turning back
   F                   C
I can feel the breeze steering with my knee
 Am                         G
Drummin' on the dashboard, bumpin' to the beat
 F                         C
Hit the windshield wiper, searching for my lighter
 Am                           G*mute*
I gotta get right before this all nighter

Chorus:
                   F       C
It's gonna be a b**chin' summer
  Am                     G
We'll be living fast kicking ass together
      F           C
like high school lovebirds
  Am                 G
Gonna have a blast make it last forever

        F          C
I'll pick you up at the liquor store
  Am                     G
Hurry up we can fit one more
      F       C
It's now or never
      Am                 G*mute*
It's gonna gonna be be a b**chin' summer

   F     C    Am       G
Oh oh oh oh, oh oh oh, b**chin' summer
   F     C    Am       G *mute*
Oh oh oh oh, oh oh oh, b**chin' summer

        F          C
I'll pick you up at the liquor store
  Am                     G
Hurry up we can fit one more
      F       C
It's now or never
      Am                 G*mute*
It's gonna gonna be be a b**chin' summer            
Submit corrections


        Bitchin Summer lessons Hard to play? Try these video lessons and learn fast Bitchin Summer lessons
        
↑ Back to top | Tablatures and chords for acoustic guitar and electric guitar, ukulele, drums are parodies/interpretations of the original songs. You may use it for private study, scholarship, research or language learning purposes only