» » »

Avicii - X You Tabs

Artists:  A B C D E F G H I J K L M N O P Q R S T U V W X Y Z # 

X You Tabs

(ver. 1) Click to play this song!
Avicii
 Rating:
3.5/5 (24 votes)

 X You  lessons Tabs too difficult? Try these video lessons and learn fast
 
                00:00
e|------------|--------------1-------|--1------------------------------------|
B|------------|-------1-3-1~---------|-----4-3-1-3---------------------------|
G|--3-3-2-3~--|--0-3------------2-3~-|---------------------------------------|
D|------------|----------------------|---------------------------------------|
A|------------|----------------------|---------------------------------------|
E|------------|----------------------|---------------------------------------|

00:10
e|-----1-----1-----1-3-1~---|--------------1-------|-------------------------|
B|--------------------------|-------1-3-1~---------|-------------------------|
G|--3-----3-----3-----------|--0-3------------2-3~-|-------------------------|
D|--------------------------|----------------------|-------------------------|
A|--------------------------|----------------------|-------------------------|
E|--------------------------|----------------------|-------------------------|

00:18
e|-----1-----1-----1--------|--------------1-------|--1----------------------|
B|--------------------------|-------1-3-1~---------|-----4-3-1-3-------------|
G|--3-----3-----3-----2-3~--|--0-3------------2-3~-|-------------------------|
D|--------------------------|----------------------|-------------------------|
A|--------------------------|----------------------|-------------------------|
E|--------------------------|----------------------|-------------------------|

00:25
e|-----1-----1-----1-3-1~---|--------------1-------|--1----------------------|
B|--------------------------|-------1-3-1~---------|-----4-3-1-3-------------|
G|--3-----3-----3-----------|--0-3------------2-3~-|-------------------------|
D|--------------------------|----------------------|-------------------------|
A|--------------------------|----------------------|-------------------------|
E|--------------------------|----------------------|-------------------------|

00:33
e|-----1-----1-----1-------|--1-----1-----1-3-1--|-1-----1-----1------|--1-----1-----1-3-1-| x4
B|-------------------------|---------------------|--------------------|--------------------|Don't repeat 
G|--3-----3-----3-----2-3--|-----3-----3---------|----3-----3-----2-3-|-----3-----3--------|the last two 
D|-------------------------|---------------------|--------------------|--------------------|note when you're 
A|-------------------------|---------------------|--------------------|--------------------|playing it 
E|-------------------------|---------------------|--------------------|--------------------|the fourth time

1:03
e|-----1-----1-----1--------|--------------1-------|--1----------------------|
B|--------------------------|-------1-3-1~---------|-----4-3-1-3-------------|
G|--3-----3-----3-----2-3~--|--0-3------------2-3~-|-------------------------|
D|--------------------------|----------------------|-------------------------|
A|--------------------------|----------------------|-------------------------|
E|--------------------------|----------------------|-------------------------|

1:11
e|-----1-----1-----1-3-1~---|--------------1-------|--1----------------------|
B|--------------------------|-------1-3-1~---------|-----4-3-1-3-------------|
G|--3-----3-----3-----------|--0-3------------2-3~-|-------------------------|
D|--------------------------|----------------------|-------------------------|
A|--------------------------|----------------------|-------------------------|
E|--------------------------|----------------------|-------------------------|

1:19
e|-----1-----1-----1--------|--------------1-------|--1----------------------|
B|--------------------------|-------1-3-1~---------|-----4-3-1-3-------------|
G|--3-----3-----3-----2-3~--|--0-3------------2-3~-|-------------------------|
D|--------------------------|----------------------|-------------------------|
A|--------------------------|----------------------|-------------------------|
E|--------------------------|----------------------|-------------------------|

1:26
e|-----1-----1-----1-3-1~---|---------------10-----|-------------------------|
B|--------------------------|-----11-11--------11--|-------------------------|
G|--3-----3-----3-----------|--12-------12---------|-------------------------|
D|--------------------------|----------------------|-------------------------|
A|--------------------------|----------------------|-------------------------|
E|--------------------------|----------------------|-------------------------|

1:43
e|--3*(15)---------|-----------1*(13)---------------------------|-----------1*(13)--|
B|-----------------|--3*(15)------------------------------------|--3*(15)-----------|This part was 
G|----------2-3-3--|--------------------0*(12)---0*(12)--2-3-3--|-------------------|simplified
D|-----------------|--------------------------------------------|-------------------|a little bit to make it
A|-----------------|--------------------------------------------|-------------------|easy to play ;)
E|-----------------|--------------------------------------------|-------------------|

1:57
   Bb   Bb  D   A   Bb  A   Bb  D
e|----|-----------------------------------------------------------|
B|----|-----------------------------------------------------------|
G|----|-----7-------------------7---------------------------------|
D|-8--|-8---7---7---8---7---8---7---------------------------------|
A|-8--|-8---5---7---8---7---8---5---------------------------------|
E|-6--|-6-------5---6---5---6-------------------------------------|

2:05
e|-------1--------1-------|
B|------------------------|
G|--2h3----2h3-3-----2h3--|Repeat this part until the next comes
D|------------------------|
A|------------------------|
E|------------------------|

02:27
e|-----1-----1-----1--------|--------------1-------|--1----------------------|
B|--------------------------|-------1-3-1~---------|-----4-3-1-3-------------|
G|--3-----3-----3-----2-3~--|--0-3------------2-3~-|-------------------------|
D|--------------------------|----------------------|-------------------------|
A|--------------------------|----------------------|-------------------------|
E|--------------------------|----------------------|-------------------------|

02:35
e|-----1-----1-----1-3-1~---|--------------1-------|--1----------------------|
B|--------------------------|-------1-3-1~---------|-----4-3-1-3-------------|
G|--3-----3-----3-----------|--0-3------------2-3~-|-------------------------|
D|--------------------------|----------------------|-------------------------|
A|--------------------------|----------------------|-------------------------|
E|--------------------------|----------------------|-------------------------|

02:42
e|-----1-----1-----1--------|--------------1-------|--1----------------------|
B|--------------------------|-------1-3-1~---------|-----4-3-1-3-------------|
G|--3-----3-----3-----2-3~--|--0-3------------2-3~-|-------------------------|
D|--------------------------|----------------------|-------------------------|
A|--------------------------|----------------------|-------------------------|
E|--------------------------|----------------------|-------------------------|

02:50
e|-----1-----1-----1-3-1~---|--3-6--6--3p1---------|--1----------------------|
B|--------------------------|---------------3-1----|-----4-3-1-3-------------|
G|--3-----3-----3-----------|--------------------3-|-------------------------|
D|--------------------------|----------------------|-------------------------|
A|--------------------------|----------------------|-------------------------|
E|--------------------------|----------------------|-------------------------|

02:58
e|-----1-----1-----1--------|--------------1-------|--1----------------------|
B|--------------------------|-------1-3-1~---------|-----4-3-1-3-------------|
G|--3-----3-----3-----2-3~--|--0-3------------2-3~-|-------------------------|
D|--------------------------|----------------------|-------------------------|
A|--------------------------|----------------------|-------------------------|
E|--------------------------|----------------------|-------------------------|

03:05
e|-----1-----1-----1-3-1~---|-----6-6-----8b10-6-6-|-------------------------|
B|--------------------------|--8-------8-----------|-------------------------|
G|--3-----3-----3-----------|----------------------|-------------------------|
D|--------------------------|----------------------|-------------------------|
A|--------------------------|----------------------|-------------------------|
E|--------------------------|----------------------|-------------------------|            
Submit corrections


        X You  lessons Hard to play? Try these video lessons and learn fast X You  lessons
        
↑ Back to top | Tablatures and chords for acoustic guitar and electric guitar, ukulele, drums are parodies/interpretations of the original songs. You may use it for private study, scholarship, research or language learning purposes only