» » »

Avicii - Waiting For Love Tabs

Artists:  A B C D E F G H I J K L M N O P Q R S T U V W X Y Z # 

Waiting For Love Tabs

(ver. 1) Click to play this song!
Avicii
 Rating:
4.3/5 (23 votes)

 Waiting For Love  lessons Tabs too difficult? Try these video lessons and learn fast
 
                e|---------------------------------14---14-----------------------------14----|
B|--------------------------14-17-----------17---17--14---------14-17--------|
G|---------------------14-------------------------------16-14----------------|
D|-16---14-16---14-16--------------------------------------------------------|
A|---------------------------------------------------------------------------|
E|---------------------------------------------------------------------------|

e|-14--16--17----------------------------------------------------------------|
B|------------14-------14----------------------------------------------------|
G|---------------16-14----14--16--------------14-----------------------------|
D|-------------------------------14-16--14-16--------------------------------|
A|---------------------------------------------------------------------------|
E|---------------------------------------------------------------------------|            
Submit corrections


        Waiting For Love  lessons Hard to play? Try these video lessons and learn fast Waiting For Love  lessons
        
↑ Back to top | Tablatures and chords for acoustic guitar and electric guitar, ukulele, drums are parodies/interpretations of the original songs. You may use it for private study, scholarship, research or language learning purposes only