» » »

Avicii - Levels Bass

Artists:  A B C D E F G H I J K L M N O P Q R S T U V W X Y Z # 

Levels Bass

(ver. 1) Click to play this song!
Avicii
 Rating:
4/5 (4 votes)

 Levels lessons Tabs too difficult? Try these video lessons and learn fast
 
                So i found this Avicii Levels tab, but it sounded wrong in the end, so i just fixed it 
Standard tuning (EADG)
Enjoy!

-9-7---------------------------|
-----9-7-5-5--5-5-5-5-4-4-5-5--|
-------------------------------|
-------------------------------|
-------------------------------|

-9-7---------------------------|
-----9-7-5-5--5-5-5-5-2-2-0-0--|
-------------------------------|
-------------------------------|
-------------------------------|
            
Submit corrections


        Levels lessons Hard to play? Try these video lessons and learn fast Levels lessons
        
↑ Back to top | Tablatures and chords for acoustic guitar and electric guitar, ukulele, drums are parodies/interpretations of the original songs. You may use it for private study, scholarship, research or language learning purposes only