» » »

Avicii - Hold On Never Leave Chords

Artists:  A B C D E F G H I J K L M N O P Q R S T U V W X Y Z # 

Hold On Never Leave Chords

(ver. 1) Click to play this song!
Avicii
 Rating:
4.3/5 (26 votes)

 Hold On Never Leave  lessons Tabs too difficult? Try these video lessons and learn fast
 
                 [Verse]

C               Bm         Em
   I thought my heart was gone
C          D       Bm
   After I lost it all
C             Bm      Em                       C
   Felt I was falling down still I chose to be proud
           D       Em
   Until I hit the ground


[Pre-Chorus]

    C      D          Em
You got me back on my feet again
              C      Bm       Em
You said that lovers come and may go
              C         Bm            Em
You said that time will pass but I'll stay your friend
              C       D        Em
I'll help you up when you feel alone



[Chorus]

      C      D
I was lonely
    Em                           C      Bm
But after all you told me I'd be ok
      Em
Cause friends are worth a hole
              C      D
Lot more then money
Em                               C
Hope that everyone has felt like me
Bm            Em
Hold on never leave



[Interlude]

E|------------------------------------------------------------
B|--0---------------------------------------3-----------------
G|-----2p------------0-0h2/4\2p-----------------4p-2/4\2p-----
D|----------2-2/4p---------------0--2--2\4-----------------0--
A|------------------------------------------------------------
E|------------------------------------------------------------

E|-------------------------------------|
B|-------------------------------------|
G|--9--9\7/9--4p-2/4\2p--------------0-|
D|-----------------------0--2--2/4p----|
A|-------------------------------------|
E|-------------------------------------|



[Chorus again]

      C      D
I was lonely
    Em                           C      Bm
But after all you told me I'd be ok
      Em
Cause friends are worth a hole
              C      D
Lot more then money
Em                               C
Hope that everyone has felt like me
Bm            Em
Hold on never leave


[Interlude again] (play these chords or the tab above) 

C  D  Em    C  Bm  Em
C  D  Em    C  Bm  Em



[Verse]

C            Bm      Em
   I started looking back
C           D       Bm
   At all I used to have
C          Bm      Em                     C
   I never felt so low where did everyone go
          D         Em
   When I need them most?


[Pre-Chorus]

    C      D          Em
You got me back on my feet again
              C      Bm       Em
You said that lovers come and may go
              C         Bm            Em
You said that time will pass but I'll stay your friend
              C       D        Em
I'll help you up when you feel alone



[Chorus]

      C      D
I was lonely
    Em                           C      Bm
But after all you told me I'd be ok
      Em
Cause friends are worth a hole
              C      D
Lot more then money
Em                               C
Hope that everyone has felt like me
Bm            Em
Hold on never leave


[Interlude]

E|------------------------------------------------------------
B|--0---------------------------------------3-----------------
G|-----2p------------0-0h2/4\2p-----------------4p-2/4\2p-----
D|----------2-2/4p---------------0--2--2\4-----------------0--
A|------------------------------------------------------------
E|------------------------------------------------------------

E|-------------------------------------|
B|-------------------------------------|
G|--9--9\7/9--4p-2/4\2p--------------0-|
D|-----------------------0--2--2/4p----|
A|-------------------------------------|
E|-------------------------------------|



[Chorus again]

      C      D
I was lonely
    Em                           C      Bm
But after all you told me I'd be ok
      Em
Cause friends are worth a hole
              C      D
Lot more then money
Em                               C
Hope that everyone has felt like me
Bm            Em
Hold on never leave


[Interlude x 2] (play these chords or the tab above) 

C  D  Em    C  Bm  Em
C  D  Em    C  Bm  Em            
Submit corrections


        Hold On Never Leave  lessons Hard to play? Try these video lessons and learn fast Hold On Never Leave  lessons
        
↑ Back to top | Tablatures and chords for acoustic guitar and electric guitar, ukulele, drums are parodies/interpretations of the original songs. You may use it for private study, scholarship, research or language learning purposes only