» » »

Avicii - All You Need Is Love Tabs

Artists:  A B C D E F G H I J K L M N O P Q R S T U V W X Y Z # 

All You Need Is Love Tabs

(ver. 1) Click to play this song!
Avicii
 Rating:
4.3/5 (28 votes)

 All You Need Is Love lessons Tabs too difficult? Try these video lessons and learn fast
 
                [Chorus]

e|-----------4--5--4--2--0-|-2--4--2-----------------|-------------------------|
B|--5--5--2----------------|----------5--5--5--5--5--|5--5--5------------------|
G|-------------------------|-------------------------|-------------------------| x1
D|-------------------------|-------------------------|-------------------------|
A|-------------------------|-------------------------|-------------------------|
E|-------------------------|-------------------------|-------------------------|

e|-----------4--5--4--2--0-|-2--4--2-----------2--4--|5--4--2--7--4--2---------|
B|--5--5--2----------------|----------5--5--5--------|-------------------------|
G|-------------------------|-------------------------|-------------------------| x7
D|-------------------------|-------------------------|-------------------------|
A|-------------------------|-------------------------|-------------------------|
E|-------------------------|-------------------------|-------------------------|

e|-----------4--5--4--2--0-|-2--4--2-----------------|-------------------------|
B|--5--5--2----------------|----------5--5--5--5--5--|5--5--5------------------|
G|-------------------------|-------------------------|-------------------------| x1
D|-------------------------|-------------------------|-------------------------|
A|-------------------------|-------------------------|-------------------------|
E|-------------------------|-------------------------|-------------------------|

[Hook]

e|-------------------------|-------------------------|-------------------------|
B|-5-5-5-5-5-5-5-5-5-5-4-4-|4-4-5-5-5-5-5-5-5-5-7-5-7|-5-----------------------|
G|-------------------------|-------------------------|-------------------------|
D|-------------------------|-------------------------|-------------------------|
A|-------------------------|-------------------------|-------------------------|
E|-------------------------|-------------------------|-------------------------|            
Submit corrections


        All You Need Is Love lessons Hard to play? Try these video lessons and learn fast All You Need Is Love lessons
        
↑ Back to top | Tablatures and chords for acoustic guitar and electric guitar, ukulele, drums are parodies/interpretations of the original songs. You may use it for private study, scholarship, research or language learning purposes only