» » »

Avicii - Addicted To You Tabs

Artists:  A B C D E F G H I J K L M N O P Q R S T U V W X Y Z # 

Addicted To You Tabs

(ver. 1) Click to play this song!
Avicii
 Rating:
4/5 (4 votes)

 Addicted To You lessons Tabs too difficult? Try these video lessons and learn fast
 
                Addicted to You – Avicii

Capo 4

Intro:

  Am

e|-0-0----0---0---0--|
B|-1-1---1----1---1--|
G|------2-----------:|
D|-----2--------2----|
A|-0--------0--------|
E|-------------------|

Verse Part 1:

   Am                Am7/G              D7sus2/F#
 |:
 |
e|-0-0----0---0---0-|-0-0----0---0---0-|-0-0----0---0---0-|
B|-1-1---1----1---1-|-1-1---1----1---1-|-1-1---1----1---1-|
G|------2-----------|------0-----------|------2-----------|
D|-----2--------2---|-----2--------2---|-----0--------0---|
A|-0--------0-------|------------------|------------------|
E|------------------|-3--------3-------|-2--------2-------|


   Fmaj7           :| Fmaj7 (2nd time) |
                    |                  |
e|-0-0----0---0---0-|-0-0----0---0---0-|
B|-1-1---1----1---1-|-1-1---1----1---1-|
G|------2-----------|------2-----------|
D|-----3--------3---|-----3--------3---|
A|------------------|------------------|
E|-1--------1-------|-1--------1-------|
   T


Verse Part 2:  (“guess I should have seen it coming…”)

  Slow rake strumming on 1st beat of each bar on these chords (with picking):

        Am     Am7/G      D7sus2/F#     Fmaj7
        Am     Am7/G      D7sus2/F#     Fmaj7     E      E


Verse Part 3:  (“like a cool and cleansing rain”)

   Am      Am7/G    D7sus2/F#          FMaj7 (twice)

                                      |:               :|
e|------------------|-------0---------|-------0---------|
B|---1---1---1---1--|---1---1---1---1-|---1---1---1---1-|
G|---2---2---2---2--|---2-------2---2-|---2-------2---2-|
D|------------------|-----------------|-----------------|
A|-0---0------------|-----------------|-----------------|
E|---------3---3----|-2---2---2---2---|-1---1---1---1---|


  E
 |:           X2  :|
e|-----------------|--0------|
B|-----------------|--0------|
G|---1---1---1---1-|--1------|
D|---2---2---2---2-|--2------|
A|-----------------|--2------|
E|-0---0---0---0---|--0------|




Chorus: (“I'm addicted to you”)


 Am                 Am7/G             D7sus2/F#
 |:
e|-------0---------|-------0---------|-----------------|
B|---1---1---1---1-|---1---1---1---1-|---1---3---1---1-|
G|---2-------2---2-|---2-------2---2-|---2---2---2---2-|
D|-----------------|-----------------|-----------------|
A|-0---0---0---0---|-----------------|-----------------|
E|-----------------|-3---3---3---3---|-2---2---2---2---|

  FMaj7
                  :|                 |
e|-------0---------|-------0---------|
B|---1---1---1---1-|---1---1---1---1-|
G|---2-------2---2-|---2-------2---2-|   (rest for 4 beats)
D|-----------------|-----------------|
A|-----------------|-----------------|
E|-1---1---1---1---|-1---1---1---1---|


Post Chorus:

e|----------------|
B|------1---------|
G|---2--2---2-----|  x2
D|---2------2-----|
A|-0---0--0---0---|
E|----------------|


Verse 2 (same as verse 1 but start at Part 2 and use off beat plucking like part 3)
            
Submit corrections


        Addicted To You lessons Hard to play? Try these video lessons and learn fast Addicted To You lessons
        
↑ Back to top | Tablatures and chords for acoustic guitar and electric guitar, ukulele, drums are parodies/interpretations of the original songs. You may use it for private study, scholarship, research or language learning purposes only