Home » A » Avatar »

Avatar - Smells Like A Freakshow Tabs

Artists:  A B C D E F G H I J K L M N O P Q R S T U V W X Y Z # 

Smells Like A Freakshow Tabs

(ver. 1) Click to play this song!
Avatar
[Intro]
B |------------------------------------------------|
F#|------------------------------------------------|
D |------------------------------------------------|
A |----------7-----------7-----------7-----------6-|
E |-0-h3-h5-----0-h3-5h-----0-h3-h5-----0-h3-h5----|
B |------------------------------------------------|

B |------------------------------------------|
F#|------------------------------------------|
D |------------------------------------------|
A |----------7-----------7-----------7--6--3-|
E |-0-h3-h5-----0-h3-5h-----0-h3-h5----------|
B |------------------------------------------|

B |------------------------------------------------|
F#|------------------------------------------------|
D |------------------------------------------------|
A |----------7-----------7-----------7-----------6-|
E |-0-h3-h5-----0-h3-5h-----0-h3-h5-----0-h3-h5----|
B |------------------------------------------------|

B |-----------------------------|
F#|-----------------------------|
D |-----------------------------|
A |-0-3-6-3-7-3-6-3-----3-----6-|
E |------------------1--1--4--4-|
B |-----------------------------|
PM  . . . . . . . .

[Main riff]
B |------------------------------------------------|
F#|------------------------------------------------|
D |------------------------------------------------|
A |----------7-----------7-----------7-----------6-|
E |-0-h3-h5-----0-h3-5h-----0-h3-h5-----0-h3-h5----|
B |------------------------------------------------|

B |------------------------------------------|
F#|------------------------------------------|
D |------------------------------------------|
A |----------7-----------7-----------7--6--3-|
E |-0-h3-h5-----0-h3-5h-----0-h3-h5----------|
B |------------------------------------------|

B |------------------------------------------------|
F#|------------------------------------------------|
D |------------------------------------------------|
A |----------7-----------7-----------7-----------6-|
E |-0-h3-h5-----0-h3-5h-----0-h3-h5-----0-h3-h5----|
B |------------------------------------------------|

B |-----------------------------|
F#|-----------------------------|
D |-----------------------------|
A |-0-3-6-3-7-3-6-3-----3-----6-|
E |------------------1--1--4--4-|
B |-----------------------------|
PM  . . . . . . . .

B |------------------------------------------------|
F#|------------------------------------------------|
D |------------------------------------------------|
A |----------7-----------7-----------7-----------6-|
E |-0-h3-h5-----0-h3-5h-----0-h3-h5-----0-h3-h5----|
B |------------------------------------------------|

B |------------------------------------------|
F#|------------------------------------------|
D |------------------------------------------|
A |----------7-----------7-----------7--6--3-|
E |-0-h3-h5-----0-h3-5h-----0-h3-h5----------|
B |------------------------------------------|

B |------------------------------------------------|
F#|------------------------------------------------|
D |------------------------------------------------|
A |----------7-----------7-----------7-----------6-|
E |-0-h3-h5-----0-h3-5h-----0-h3-h5-----0-h3-h5----|
B |------------------------------------------------|

B |-----------------------------|
F#|-----------------------------|
D |-----------------------------|
A |-0-3-6-3-7-3-6-3-----3-----6-|
E |------------------1--1--4--4-|
B |-----------------------------|
PM  . . . . . . . .

[Verse]
   Smells like a freakshow
B |------------------------------------------------|
F#|------------------------------------------------|
D |------------------------------------------------|
A |------------------------------------------------|
E |-0-h3-h5--0--0-h3-h5--0--0-h3-h5--0--0-h3-h5----|
B |----------------------------------------------4-|

   Right where i want to be
B |---------------------------------------|
F#|---------------------------------------|
D |---------------------------------------|
A |---------------------------------------|
E |-0-h3-h5--0--0-h3-h5--0--0-h3-h5-------|
B |----------------------------------4--1-|

   Come taste the dirt
B |------------------------------------------------|
F#|------------------------------------------------|
D |------------------------------------------------|
A |------------------------------------------------|
E |-0-h3-h5--0--0-h3-h5--0--0-h3-h5--0--0-h3-h5----|
B |----------------------------------------------4-|

   The dirt, the dirt
B |-----------------------------|
F#|-----------------------------|
D |-----------------------------|
A |-0-3-6-3-7-3-6-3-----3-----6-|
E |------------------1--1--4--4-|
B |-----------------------------|
PM  . . . . . . . .
   
   I smell a freak show
B |------------------------------------------------|
F#|------------------------------------------------|
D |------------------------------------------------|
A |------------------------------------------------|
E |-0-h3-h5--0--0-h3-h5--0--0-h3-h5--0--0-h3-h5----|
B |----------------------------------------------4-|

   There's something wrong with me
B |---------------------------------------|
F#|---------------------------------------|
D |---------------------------------------|
A |---------------------------------------|
E |-0-h3-h5--0--0-h3-h5--0--0-h3-h5-------|
B |----------------------------------4--1-|

   Want it to hurt
B |------------------------------------------------|
F#|------------------------------------------------|
D |------------------------------------------------|
A |------------------------------------------------|
E |-0-h3-h5--0--0-h3-h5--0--0-h3-h5--0--0-h3-h5----|
B |----------------------------------------------4-|

   It hurts, it hurts, I
B |-----------------------------|
F#|-----------------------------|
D |-----------------------------|
A |-0-3-6-3-7-3-6-3-----3-----6-|
E |------------------1--1--4--4-|
B |-----------------------------|
PM  . . . . . . . .

[Pre-Chorus]
B |------------------------------------------------|
F#|------------------------------------------------|
D |------------------------------------------------|
A |----------7-----------7-----------7-----------6-|
E |-0-h3-h5-----0-h3-5h-----0-h3-h5-----0-h3-h5----|
B |------------------------------------------------|

B |------------------------------------------|
F#|------------------------------------------|
D |------------------------------------------|
A |----------7-----------7-----------7--6--3-|
E |-0-h3-h5-----0-h3-5h-----0-h3-h5----------|
B |------------------------------------------|

B |------------------------------------------------|
F#|------------------------------------------------|
D |------------------------------------------------|
A |----------6-----------6-----------6-----------7-|
E |-0-h3-h5-----0-h3-5h-----0-h3-h5-----0-h3-h5----|
B |------------------------------------------------|

B |---------------------------|
F#|---------------------------|
D |---------------------------|
A |----------6-----------6--2-|
E |-0-h3-h5-----0-h3-5h-------|
B |---------------------------|

[Chorus]
   I need something to sedate me
   But I can't afford the high
   Give me something to help me escape
   Smells like a freakshow

[Main riff]
B |------------------------------------------------|
F#|------------------------------------------------|
D |------------------------------------------------|
A |----------7-----------7-----------7-----------6-|
E |-0-h3-h5-----0-h3-5h-----0-h3-h5-----0-h3-h5----|
B |------------------------------------------------|

B |------------------------------------------|
F#|------------------------------------------|
D |------------------------------------------|
A |----------7-----------7-----------7--6--3-|
E |-0-h3-h5-----0-h3-5h-----0-h3-h5----------|
B |------------------------------------------|

B |------------------------------------------------|
F#|------------------------------------------------|
D |------------------------------------------------|
A |----------7-----------7-----------7-----------6-|
E |-0-h3-h5-----0-h3-5h-----0-h3-h5-----0-h3-h5----|
B |------------------------------------------------|

B |-----------------------------|
F#|-----------------------------|
D |-----------------------------|
A |-0-3-6-3-7-3-6-3-----3-----6-|
E |------------------1--1--4--4-|
B |-----------------------------|
PM  . . . . . . . .

B |------------------------------------------------|
F#|------------------------------------------------|
D |------------------------------------------------|
A |----------7-----------7-----------7-----------6-|
E |-0-h3-h5-----0-h3-5h-----0-h3-h5-----0-h3-h5----|
B |------------------------------------------------|

B |------------------------------------------|
F#|------------------------------------------|
D |------------------------------------------|
A |----------7-----------7-----------7--6--3-|
E |-0-h3-h5-----0-h3-5h-----0-h3-h5----------|
B |------------------------------------------|

B |------------------------------------------------|
F#|------------------------------------------------|
D |------------------------------------------------|
A |----------7-----------7-----------7-----------6-|
E |-0-h3-h5-----0-h3-5h-----0-h3-h5-----0-h3-h5----|
B |------------------------------------------------|

B |-----------------------------|
F#|-----------------------------|
D |-----------------------------|
A |-0-3-6-3-7-3-6-3-----3-----6-|
E |------------------1--1--4--4-|
B |-----------------------------|
PM  . . . . . . . .

[Verse] 
   God in a casket
B |------------------------------------------------|
F#|------------------------------------------------|
D |------------------------------------------------|
A |------------------------------------------------|
E |-0-h3-h5--0--0-h3-h5--0--0-h3-h5--0--0-h3-h5----|
B |----------------------------------------------4-|

   Gone for eternities
B |---------------------------------------|
F#|---------------------------------------|
D |---------------------------------------|
A |---------------------------------------|
E |-0-h3-h5--0--0-h3-h5--0--0-h3-h5-------|
B |----------------------------------4--1-|

   We've got no rules
B |------------------------------------------------|
F#|------------------------------------------------|
D |------------------------------------------------|
A |------------------------------------------------|
E |-0-h3-h5--0--0-h3-h5--0--0-h3-h5--0--0-h3-h5----|
B |----------------------------------------------4-|

   No rules, no rules
B |-----------------------------|
F#|-----------------------------|
D |-----------------------------|
A |-0-3-6-3-7-3-6-3-----3-----6-|
E |------------------1--1--4--4-|
B |-----------------------------|
PM  . . . . . . . .

   I god in a casket
B |------------------------------------------------|
F#|------------------------------------------------|
D |------------------------------------------------|
A |------------------------------------------------|
E |-0-h3-h5--0--0-h3-h5--0--0-h3-h5--0--0-h3-h5----|
B |----------------------------------------------4-|

   Lost all authority
B |---------------------------------------|
F#|---------------------------------------|
D |---------------------------------------|
A |---------------------------------------|
E |-0-h3-h5--0--0-h3-h5--0--0-h3-h5-------|
B |----------------------------------4--1-|

   Come watch the fools
B |------------------------------------------------|
F#|------------------------------------------------|
D |------------------------------------------------|
A |------------------------------------------------|
E |-0-h3-h5--0--0-h3-h5--0--0-h3-h5--0--0-h3-h5----|
B |----------------------------------------------4-|

   The fools, the fools, I
B |-----------------------------|
F#|-----------------------------|
D |-----------------------------|
A |-0-3-6-3-7-3-6-3-----3-----6-|
E |------------------1--1--4--4-|
B |-----------------------------|
PM  . . . . . . . .

[Pre-Chorus]
B |------------------------------------------------|
F#|------------------------------------------------|
D |------------------------------------------------|
A |----------7-----------7-----------7-----------6-|
E |-0-h3-h5-----0-h3-5h-----0-h3-h5-----0-h3-h5----|
B |------------------------------------------------|

B |------------------------------------------|
F#|------------------------------------------|
D |------------------------------------------|
A |----------7-----------7-----------7--6--3-|
E |-0-h3-h5-----0-h3-5h-----0-h3-h5----------|
B |------------------------------------------|

B |------------------------------------------------|
F#|------------------------------------------------|
D |------------------------------------------------|
A |----------6-----------6-----------6-----------7-|
E |-0-h3-h5-----0-h3-5h-----0-h3-h5-----0-h3-h5----|
B |------------------------------------------------|

B |---------------------------|
F#|---------------------------|
D |---------------------------|
A |----------6-----------6--2-|
E |-0-h3-h5-----0-h3-5h-------|
B |---------------------------|

[Chorus]
I need something to sedate me
But I can't afford the high
Give me something to help me escape
Smells like a freakshow
Smells like a freakshow

[Stick]
B |-----|------------|------|------------|
F#|-----|------------|------|------------|
D |--7--|--9-----10--|--12--|--12----14--|
A |-----|------------|------|------------|
E |--5--|--7-----8---|--10--|--10----12--|
B |-----|------------|------|------------|

B |-----|------------|------|-----------------|
F#|-----|------------|--11--|--11----13-------|
D |--7--|--9-----10--|------|-----------------|
A |-----|------------|--8---|--8-----10-------|
E |--5--|--7-----8---|------|-------------14/-|
B |-----|------------|------|-------------12/-|

[Stick part 2]
B |-----------------------------------------|
F#|-----------------------------------------|
D |-----------------------------------------|
A |-7----------7--7-----------7--7----------|
E |---0-h3-h5--------0-h3-h5--------0-h3-h5-|
B |-----------------------------------------|

B |----------------------------------|
F#|----------------------------------|
D |----------------------------------|
A |-6--6------------6--6-----------9-|
E |-------0-h3--h5--------0-h3-h5----|
B |----------------------------------|

B |-----------------------------------------|
F#|-----------------------------------------|
D |-----------------------------------------|
A |-7----------7--7-----------7--7----------|
E |---0-h3-h5--------0-h3-h5--------0-h3-h5-|
B |-----------------------------------------|

B |----------------------------------|
F#|----------------------------------|
D |----------------------------------|
A |-6--6------------6--6-----------9-|
E |-------0-h3--h5--------0-h3-h5----|
B |----------------------------------|

B |-----------------------------------------|
F#|-----------------------------------------|
D |-----------------------------------------|
A |-7----------7--7-----------7--7----------|
E |---0-h3-h5--------0-h3-h5--------0-h3-h5-|
B |-----------------------------------------|

B |---------------------------------------|
F#|---------------------------------------|
D |---------------------------------------|
A |-6--6------------6--6--0-3-6-3-7-3-6-3-|
E |-------0-h3--h5------------------------|
B |---------------------------------------|
PM                        . . . . . . . .

B |-----------------------------------------|
F#|-----------------------------------------|
D |-----------------------------------------|
A |-7----------7--7-----------7--7----------|
E |---0-h3-h5--------0-h3-h5--------0-h3-h5-|
B |-----------------------------------------|

B |----------------------------------|
F#|----------------------------------|
D |----------------------------------|
A |-6--6------------6--6-----------9-|
E |-------0-h3--h5--------0-h3-h5----|
B |----------------------------------|

B |-----------------------------------------|
F#|-----------------------------------------|
D |-----------------------------------------|
A |-7----------7--7-----------7--7----------|
E |---0-h3-h5--------0-h3-h5--------0-h3-h5-|
B |-----------------------------------------|

B |---------------------------------------|
F#|---------------------------------------|
D |---------------------------------------|
A |-6--6------------6--6--0-3-6-3-7-3-6-3-|
E |-------0-h3--h5------------------------|
B |---------------------------------------|
PM                        . . . . . . . .

[Instrumental]
B |------------------------------------------------|
F#|------------------------------------------------|
D |------------------------------------------------|
A |----------7-----------7-----------7-----------6-|
E |-0-h3-h5-----0-h3-5h-----0-h3-h5-----0-h3-h5----|
B |------------------------------------------------|

B |------------------------------------------|
F#|------------------------------------------|
D |------------------------------------------|
A |----------7-----------7-----------7--6--3-|
E |-0-h3-h5-----0-h3-5h-----0-h3-h5----------|
B |------------------------------------------|

[Pre-Chorus]
B |------------------------------------------------|
F#|------------------------------------------------|
D |------------------------------------------------|
A |----------7-----------7-----------7-----------6-|
E |-0-h3-h5-----0-h3-5h-----0-h3-h5-----0-h3-h5----|
B |------------------------------------------------|

B |------------------------------------------|
F#|------------------------------------------|
D |------------------------------------------|
A |----------7-----------7-----------7--6--3-|
E |-0-h3-h5-----0-h3-5h-----0-h3-h5----------|
B |------------------------------------------|

B |------------------------------------------------|
F#|------------------------------------------------|
D |------------------------------------------------|
A |----------6-----------6-----------6-----------7-|
E |-0-h3-h5-----0-h3-5h-----0-h3-h5-----0-h3-h5----|
B |------------------------------------------------|

B |---------------------------|
F#|---------------------------|
D |---------------------------|
A |----------6-----------6--2-|
E |-0-h3-h5-----0-h3-5h-------|
B |---------------------------|

[Chorus]
I need something to sedate me
But I can't afford the high
Give me something to help me escape
Smells like a freakshow

To sedate me but I can't afford the high
Give me something to help me escape
Smells like a freakshow

[Outro]
B |------------------------------------------------|
F#|------------------------------------------------|
D |------------------------------------------------|
A |----------7-----------7-----------7-----------6-|
E |-0-h3-h5-----0-h3-5h-----0-h3-h5-----0-h3-h5----|
B |------------------------------------------------|

B |------------------------------------------|
F#|------------------------------------------|
D |------------------------------------------|
A |----------7-----------7-----------7--6--3-|
E |-0-h3-h5-----0-h3-5h-----0-h3-h5----------|
B |------------------------------------------|

B |------------------------------------------------|
F#|------------------------------------------------|
D |------------------------------------------------|
A |----------7-----------7-----------7-----------6-|
E |-0-h3-h5-----0-h3-5h-----0-h3-h5-----0-h3-h5----|
B |------------------------------------------------|

B |-----------------------------|
F#|-----------------------------|
D |-----------------------------|
A |-0-3-6-3-7-3-6-3-----3-----6-|
E |------------------1--1--4--4-|
B |-----------------------------|
PM  . . . . . . . .

B |------------------------------------------------|
F#|------------------------------------------------|
D |------------------------------------------------|
A |----------7-----------7-----------7-----------6-|
E |-0-h3-h5-----0-h3-5h-----0-h3-h5-----0-h3-h5----|
B |------------------------------------------------|

B |------------------------------------------|
F#|------------------------------------------|
D |------------------------------------------|
A |----------7-----------7-----------7--6--3-|
E |-0-h3-h5-----0-h3-5h-----0-h3-h5----------|
B |------------------------------------------|

B |------------------------------------------------|
F#|------------------------------------------------|
D |------------------------------------------------|
A |----------6-----------6-----------6-----------7-|
E |-0-h3-h5-----0-h3-5h-----0-h3-h5-----0-h3-h5----|
B |------------------------------------------------|

B |---------------------------|
F#|---------------------------|
D |---------------------------|
A |----------6-----------6--2-|
E |-0-h3-h5-----0-h3-5h-------|
B |---------------------------|            
Submit corrections

↑ Back to top | Tablatures and chords for acoustic guitar and electric guitar, ukulele, drums are parodies/interpretations of the original songs. You may use it for private study, scholarship, research or language learning purposes only