» » »

Autopilot Off - Silver Star Tabs

Artists:  A B C D E F G H I J K L M N O P Q R S T U V W X Y Z # 

Silver Star Tabs

(ver. 1) Click to play this song!
Autopilot Off
 Rating:
4/5 (4 votes)

 Silver Star lessons Tabs too difficult? Try these video lessons and learn fast
 
                

this is a great song but a great punk band i came
accross, if you haven't heard it download some of
their stuff, especially this song. even if you don't
know the song it's a great riff to play! this is only
my second tab so any comments or whatever
would be appreciated


------------------------------------------------------------------------------|
------------------------------------------------------------------------------|
-9-9-9---9-9-9---9-----------------9----11----13----14------------------------|
-9-9-9---9-9-9---9-x10-11----7-----x-x4--x-x4--x-x4--x------------------------|
-7-7-7---7-7-7---7-----11-x5-7-x5--7-----9----11----12------------------------|
------------------------9----5------------------------------------------------|
                                          continued...

------------------------------------------------------------------------------|
------------------------------------------------------------------------------|
------------------------------------------------------------------------------|
-11-----7-----11-----7-----11-----14-----9------------------------------------|
-11-x4--7-x4--11-x4--7-x4--11-x4--14-x4--9-x8---------------------------------|
--9-----5------9-----5------9-----12-----7------------------------------------|
  you can make up a rhythm, thats about it, adios
            
Submit corrections


        Silver Star lessons Hard to play? Try these video lessons and learn fast Silver Star lessons
        
↑ Back to top | Tablatures and chords for acoustic guitar and electric guitar, ukulele, drums are parodies/interpretations of the original songs. You may use it for private study, scholarship, research or language learning purposes only