» » »

Authority Zero - Wake Up Call Bass

Artists:  A B C D E F G H I J K L M N O P Q R S T U V W X Y Z # 

Wake Up Call Bass

(ver. 1) Click to play this song!
Authority Zero
 Rating:
4/5 (4 votes)

 Wake Up Call lessons Tabs too difficult? Try these video lessons and learn fast
 
                

Hello boys and girls, today we're going to make music. So get your instruments.

G|-----5---5---5---5---5---5---5---5---4---4---4---4---5---5---5---5---|
D|---7---7---7---7---5---5---5---5---5---5---5---5---3---3---3---3-----|
A|---------------------------------------------------------------------|
E|---------------------------------------------------------------------|

Repeat twice.

G|---------55555-44444---------|
D|---77777-------------33333---|
A|-----------------------------|
E|-----------------------------|

Repeat seven times.

G|--------------------------------------------------------------------------|
D|----------------------------5-3-5-------------------------------5-----0---|
A|---2h3-3-2h3-3-2h3-3-2h3-3-----------3-2h3-3-2h3-3-2h3-3-2h3-3------------|
E|--------------------------------------------------------------------------|

Repeat three times.

G|----------------------------|
D|---77777-55555-55555-33333--|
A|----------------------------|
E|----------------------------|

Repeat a bunch of times.

G|--------------------------------------------------------------------------|
D|----------------------------5-3-5-------------------------------5-----0---|
A|---2h3-3-2h3-3-2h3-3-2h3-3-----------3-2h3-3-2h3-3-2h3-3-2h3-3------------|
E|--------------------------------------------------------------------------|

Repeat three times.

Then there's that breakdown, with no bass until 2:41.

G|-----------------------------|
D|---77777-55555-55555-33333---|
A|-----------------------------|
E|-----------------------------|

Repeat several times.

G|--------------------------------------------------------------------------|
D|----------------------------5-3-5-------------------------------5-----0---|
A|---2h3-3-2h3-3-2h3-3-2h3-3-----------3-2h3-3-2h3-3-2h3-3-2h3-3------------|
E|--------------------------------------------------------------------------|

And repeat that until the end. You're done.
            
Submit corrections


        Wake Up Call lessons Hard to play? Try these video lessons and learn fast Wake Up Call lessons
        
↑ Back to top | Tablatures and chords for acoustic guitar and electric guitar, ukulele, drums are parodies/interpretations of the original songs. You may use it for private study, scholarship, research or language learning purposes only