» » »

Authority Zero - Not You Tabs

Artists:  A B C D E F G H I J K L M N O P Q R S T U V W X Y Z # 

Not You Tabs

(ver. 1) Click to play this song!
Authority Zero
 Rating:
4/5 (4 votes)

 Not You lessons Tabs too difficult? Try these video lessons and learn fast
 
                * = Palm Mute


Intro
e--------------------------------------
B--------------------------------------
G--------------------------------------
D-----7-----2/7----2/7-----2/7-----3-9-
A-----7-----2/7----2/7-----2/7-----3-9-
E-----5-----0/5----0/5-----0/5-----1-7-

Verse
e---------------------------------------
B---------------------------------------
G---------------------------------------
D---77777777-7-7--777777777-------------
A---77777777-7-7--777777777-------------
E---55555555-5-5--555555555-------------
    ********      *********

Chorus
e---------------------------------------
B---------------------------------------
G--------7777-5555-999999999-555--------
D---7777-7777-5555-999999999-555-77777--
A---7777-5555-3333-777777777-333-77777--
E---5555-------------------------55555--
            
Submit corrections


        Not You lessons Hard to play? Try these video lessons and learn fast Not You lessons
        
↑ Back to top | Tablatures and chords for acoustic guitar and electric guitar, ukulele, drums are parodies/interpretations of the original songs. You may use it for private study, scholarship, research or language learning purposes only