» » »

Authority Zero - Mesa Town Tabs

Artists:  A B C D E F G H I J K L M N O P Q R S T U V W X Y Z # 

Mesa Town Tabs

(ver. 1) Click to play this song!
Authority Zero
 Rating:
4/5 (4 votes)

 Mesa Town lessons Tabs too difficult? Try these video lessons and learn fast
 
                I'm too lazy to tab out the rhythms but you get the idea.

Verse:
e:---------------------------------
B:---------------------------------
G:--------7-----9----7--9----------
D:--7-----7-----9----7--9--7-------
A:--7-----5-----7----5--7--7-------
E:--5----------------------5-------

Chorus (with kind of a bouncy feel to it):
e:--------------------------------------
B:--------------------------------------
G:----------7-7-7-7-9-9-7-9-------------
D:--7-7-7-7-7-7-7-7-9-9-7-9-7-7-7-7-----
A:--7-7-7-7-5-5-5-5-7-7-5-7-7-7-7-7-----
E:--5-5-5-5-----------------5-5-5-5-----
            
Submit corrections


        Mesa Town lessons Hard to play? Try these video lessons and learn fast Mesa Town lessons
        
↑ Back to top | Tablatures and chords for acoustic guitar and electric guitar, ukulele, drums are parodies/interpretations of the original songs. You may use it for private study, scholarship, research or language learning purposes only