» » »

Authority Zero - A Passage In Time Bass

Artists:  A B C D E F G H I J K L M N O P Q R S T U V W X Y Z # 

A Passage In Time Bass

(ver. 1) Click to play this song!
Authority Zero
 Rating:
4/5 (4 votes)

 A Passage In Time lessons Tabs too difficult? Try these video lessons and learn fast
 
                

Tuning: Standard

This is one of those things where you just have to listen the song to understand 
the rhythm. Sorry.

Bass comes in at 0:08.

G|-------------|
D|-------------|
A|-------------|
E|---3----3----|

Hold those until 0:15, when he yells out "Here we go". Then you start playing for real.

G|------------------------------|
D|---------33333------00000---|
A|---------------33333---------|
E|---33333---------------------|

Repeat four times.

G|---------------------------------------------------------------|
D|---------------------------------------------------------------|
A|-----------666-888-------------------------666-888-------------|
E|---333-666---------333-666-111-111-333-666---------333-666-1---|

Hold the last note while the tempo gets fast again.

G|-----------------------------------------------------|
D|-----------------------------------------------------|
A|---------------66666-88888---------------------------|
E|---33333-66666-------------33333-66666-11111-11111---|

G|-----------------------------------------------------|
D|-----------------------------------------------------|
A|---------------66666-88888---------------------------|
E|---33333-66666-------------33333-66666-33333-3-------|

G|-----------------------------------------------------|
D|-----------------------------------------------------|
A|---------------66666-88888---------------------------|
E|---33333-66666-------------33333-66666-11111-11111---|

G|-----------------------------------------------------|
D|-----------------------------------------------------|
A|---------------66666-88888---------------------------|
E|---33333-66666-------------33333-66666-33333-3-------|

G|-------------------------------------------------------------|
D|-------333-----000-----333-----000-------33333-------00000---|
A|-----------333-------------333-----------------33333---------|
E|---333-------------333-------------33333---------------------|

G|-------------------------------------------------------------|
D|---------33333-------00000-----------------------------------|
A|---------------33333---------------------66666-88888---------|
E|---33333---------------------33333-66666---------------------|

G|-------------------------------------------------------------|
D|-------------------------------------------------------------|
A|---------------------------------------66666-88888-----------|
E|---33333-66666-11111-11111-33333-66666-----------------------|

Repeat that last line until 1:51.

G|-------------------------------------------------------------|
D|-------333-----000-----333-----000-------33333-------00000---|
A|-----------333-------------333-----------------33333---------|
E|---333-------------333-------------33333---------------------|

G|---------------------------(2)---|
D|---------33333-------00000-------|
A|---------------33333-------------|
E|---33333-------------------------|


Someone might have to correct me about the next part. I can't hear it that well.

G|------------------------------|
D|----------------0-4-4-0-4-4---|
A|---0-4-4-0-4-4----------------|
E|------------------------------|

As far as I can tell, the bass just repeats this while the guitar does the funky work.


Then there's the solo;

G|-------------------------------------------------|
D|------------------10/12-12-12-12/10--------------|
A|---------10/12-12-------------------12-10-10-----|
E|---10-10-----------------------------------------|

Repeat four times.

G|-----------------------------|
D|-----------------------------|
A|---------88888-------6-6-5---|
E|---33333-------88888---------|

Repeat four times.

G|------------------------------------------------------------|
D|------------------------------------------------------------|
A|--------------66666-88888-----------------------------------|
E|--33333-66666---------------33333-66666-11111-11111---------|

G|------------------------------------------------------------|
D|------------------------------------------------------------|
A|--------------66666-88888-----------------------------------|
E|--33333-66666---------------33333-66666-11111-11111---------|

G|-------------------------------------------------------------|
D|-------333-----000-----333-----000-------33333-------00000---|
A|-----------333-------------333-----------------33333---------|
E|---333-------------333-------------33333---------------------|

G|-----------------------------|
D|---------33333-------00000---|
A|---------------33333---------|
E|---33333---------------------|

Repeat the last line until the end, and you're good. 
            
Submit corrections


        A Passage In Time lessons Hard to play? Try these video lessons and learn fast A Passage In Time lessons
        
↑ Back to top | Tablatures and chords for acoustic guitar and electric guitar, ukulele, drums are parodies/interpretations of the original songs. You may use it for private study, scholarship, research or language learning purposes only