» » »

Audioslave - Like A Stone Tabs

Artists:  A B C D E F G H I J K L M N O P Q R S T U V W X Y Z # 

Like A Stone Tabs

(ver. 1) Click to play this song!
Audioslave
 Rating:
2.5/5 (11 votes)


 Like A Stone lessons Tabs too difficult? Try these video lessons and learn fast
 
                PROPS GO TO: Jorge Vela

INTRO  
E|----------------------------------------|
B|*-------------------------------------*-|
G|----------------------------------------|
D|-8------10---------7------13------12----| Play(6)times
A|*---10------8-------------------------*-|
E|---------------10-----11------11--------|


(CHORUS)
E|------------------|
B|*---------------*-|
G|-8----------------|
D|-8---8---3---5----|
A|*6---8---3---5--*-|
E|-----6---1---3----|


SOLO He is using the WHAMMY Pedal
E|---------------------------------------------------------|
B|-------------13----------------------------------18--20--|
G|-12--14--15------15--14--12--12--14--10--15--17----------|
D|---------------------------------------------------------|
A|---------------------------------------------------------|
E|---------------------------------------------------------|

(>)hit down on the WHAMMY pedal
   >        >
E|-22-22-22-20-20-20-19-19-19-17-17-17---|
B|*------------------------------------*-|
G|---------------------------------------| Play(4)times
D|---------------------------------------|
A|*------------------------------------*-|
E|---------------------------------------|

E|-------------------------------------|
B|------------------------------->-----|
G|---2-3-5-7-8-10-12-14-15-14-15-14b---| (b)Bend
D|-5-----------------------------------|
A|---0-1-3-5-6-8--10-12-13-12-13-12b---|
E|-3-----------------------------------|

Acustic
E|---------------------------------------------------|
B|*8--8--8--8--------------------------------------*-|
G|-8--8--8--8--7--7--7--7--2--2--2--2----------------|
D|-8--8--8--8--8--8--8--8--3--3--3--3--5--5--5--5----| Play(4)times
A|*6--6--6--6--8--8--8--8--3--3--3--3--5--5--5--5--*-|
E|-------------6--6--6--6--1--1--1--1--3--3--3--3----|


(CHORUS)
E|------------------|
B|*---------------*-|
G|-8----------------| Play(3)times
D|-8---8---3---5----|
A|*6---8---3---5--*-|
E|-----6---1---3----|

End
E|----------------------|
B|----------------------|
G|-8--------------------|
D|-8--8--5--3--5--3--5--|
A|-6--8--5--3--5--3--5--|
E|----6--3--1--3--1--3--|
            
Submit corrections



        Like A Stone lessons Hard to play? Try these video lessons and learn fast Like A Stone lessons
        
↑ Back to top | Tablatures and chords for acoustic guitar and electric guitar, ukulele, drums are parodies/interpretations of the original songs. You may use it for private study, scholarship, research or language learning purposes only