» » »

Audacious - All That I Need Tabs

Artists:  A B C D E F G H I J K L M N O P Q R S T U V W X Y Z # 

All That I Need Tabs

(ver. 1) Click to play this song!
Audacious
 Rating:
4/5 (4 votes)
                -------------------------------------------------------------------------------
-------------------------------------------------------------------------------

Tuning: Standard

Intro/Interlude
E  B  C#m  A
e|-----------------------------------------|
B|-------------------12-12-10-10-9-9-------|
G|-9-9-9-9-9-9-9-9-9-----------------11-11-|
D|-----------------------------------------|
A|-----------------------------------------|
E|-----------------------------------------|

e|------------------------------------------------|
B|----------------------------12-12-10-10-9-9-----|
G|-11-11-11-11-11-11-11-11-11-----------------9-9-|
D|------------------------------------------------|
A|------------------------------------------------|
E|------------------------------------------------|

e|-----------------------------------------|
B|-------------------12-12-10-10-9-9-------|
G|-9-9-9-9-9-9-9-9-9-----------------------|
D|-----------------------------------11-11-|
A|-----------------------------------------|
E|-----------------------------------------|


Verse
C#m                          A
  You hold my world, in your saving hands
                            C#m
  You've planned for all my days
                       A
  I call you name, and you call me your own


PreChorus
     C#m              C#m/B
So I lift my hands in awe of you
A
Jesus my everything
    C#m               C#m/B
You paid the price to save my life
    A
And now I live for You


Chorus 1
     E                       B
It's you, all that I need is you
                   C#m    A                E    B   C#m   A
All that I need is you, Jesus it's all for you


Chorus 2
     E                       B
It's you, all that I need is you
                   C#m    A                E
All that I need is you, Jesus it's all for you
                   B
All that I need is you, Jesus
                 C#m                    A
The keeper of my days, the love that is always
              E  B  C#m  A
It's all for you


Instrumental/Solo
E  B  C#m  A
e|-----------------------------------------|
B|-------------------12-12-10-10-9-9-------|
G|-9-9-9-9-9-9-9-9-9-----------------11-11-|
D|-----------------------------------------|
A|-----------------------------------------|
E|-----------------------------------------|

e|------------------------------------------------|
B|----------------------------12-12-10-10-9-9-----|
G|-11-11-11-11-11-11-11-11-11-----------------9-9-|
D|------------------------------------------------|
A|------------------------------------------------|
E|------------------------------------------------|

e|--------------------------------------|
B|-------------------12-12-10-10-9-9----|
G|-9-9-9-9-9-9-9-9-9--------------------|
D|-----------------------------------11-|
A|--------------------------------------|
E|--------------------------------------|

e|---------------------------------------|
B|---------------------------------------|
G|--------------8-9---8h9/11-11---11/9-9-|
D|-9h11/13---11--------------------------|
A|---------------------------------------|
E|---------------------------------------|


Bridge
E
  Glory, in the highest we sing
B
  Glory, to the king of kings we sing
C#m                           A (B C#m D# second time)
  Glory, to the God of wonders


Absolutely phenomenal song, and as with Audacious as usual, it's simple as ever. In the 
last chorus if you break just on the "all that I need is you" and come back in on the B 
it sounds totally incredible, as they do on the record or live, it's epic.



************************************

| /   slide up
| \   slide down
| h   hammer-on
| p   pull-off
| ~   vibrato
| +   harmonic
| x   Mute note
| b   Bend
| pb  Pre-bend
| br  Bend release
| pbr Pre-bend release
| brb Bend release bend

************************************
            
Submit corrections

↑ Back to top | Tablatures and chords for acoustic guitar and electric guitar, ukulele, drums are parodies/interpretations of the original songs. You may use it for private study, scholarship, research or language learning purposes only