Home » A » Auburn »

Auburn - Perfect Two Tabs

Artists:  A B C D E F G H I J K L M N O P Q R S T U V W X Y Z # 

Perfect Two Tabs

(ver. 9) Click to play this song!
Auburn

With the Hammer On (a bit harder)
e|--3h5-3---3---3---3---|3h5-2---2---2---2---|2h3-0---0---0---0---0---|0---0---0---0---0|
B|--3h5-3---3---3---3---|3h5-3---3---3---3---|3-3-0---0---0---0---0---|1---1---1---1---1|
G|----------------------|--------------------|------------------------|-----------------|
D|----------------------|--------------------|------------------------|-----------------|
A|----------------------|--------------------|------------------------|-----------------|
E|----------------------|--------------------|------------------------|-----------------|

Without the Hammer On (Easier)
e|--3---3---3---3---3---|2---2---2---2---2---|0---0---0---0---0---|0---0---0---0---0|
B|--3---3---3---3---3---|3---3---3---3---3---|0---0---0---0---0---|1---1---1---1---1|
G|----------------------|--------------------|--------------------|-----------------|
D|----------------------|--------------------|--------------------|-----------------|
A|----------------------|--------------------|--------------------|-----------------|
E|----------------------|--------------------|--------------------|-----------------|
            
Submit corrections

↑ Back to top | Tablatures and chords for acoustic guitar and electric guitar, ukulele, drums are parodies/interpretations of the original songs. You may use it for private study, scholarship, research or language learning purposes only