» » »

Attic Abasement - A Werewolf Tabs

Artists:  A B C D E F G H I J K L M N O P Q R S T U V W X Y Z # 

A Werewolf Tabs

(ver. 1) Click to play this song!
Attic Abasement
 Rating:
4.3/5 (21 vote)

 A Werewolf lessons Tabs too difficult? Try these video lessons and learn fast
 
                This is played through the verses:
E||-------------3----2p0---|-------------------------|
B||--0---------------------|--3-----------3---1p0----|
G||-------0----------------|-----0-----0-------------|
D||------------------------|--------0----------------|
A||--3-------3-------------|-------------------------|
E||------------------------|--3----------------------|
 
|--------------------------|--------------------------||
|--0-----------0h3--0--3---|--0-----------0h3--0--3---||
|-----0-----0--------------|--------0-----------------||
|--------2-----------------|-----2-----2--------------||
|--------------------------|--0-----------------------||
|--0-----------------------|--------------------------||

Chorus: (I can be a werewolf, if you want me to..)
E||----------------------|------------------------|-------------------------|
B||--0-------------------|--0------------------0--|----------------------0--|
G||-----------0---2--2---|------0------0---2------|--0-----------0---2------|
D||--------0-------------|----------0-------------|-----2-----2-------------|
A||--3-------------------|------------------------|-------------------------|
E||----------------------|------------------------|--------0----------------|

|--------------------------||
|--------------0h3--0--3---||
|--0--------0--------------||
|--------2-----------------||
|-----0--------------------||
|--------------------------||

Bridge: (I know when it's time to let the dog decide..)
E||------------------------|------------------------|-----------------------|
B||--0----------0----------|--0----------0----------|--0-----------0--------|
G||-------0--0------0---0--|-------0--0------0---0--|--------0--0----0---0--|
D||------------------------|------------------------|-----2-----------------|
A||--3---------------------|------------------------|-----------------------|
E||------------------------|--3---------------------|--0--------------------|

|-------------------------|------------------------|------------------------|
|--0-----------0----------|--0----------0----------|--0----------0----------|
|--------0--0------0---0--|-------0--0------0---0--|-------0--0------0---0--|
|-------------------------|------------------------|------------------------|
|-----0-------------------|--3---------------------|------------------------|
|-------------------------|------------------------|--3---------------------|

|-------------------------|-------------------------||
|--0-----------0----------|--0----------0-3--0--3---||
|--------0--0------0---0--|-------0--0--------------||
|-----2-------------------|-------------------------||
|-------------------------|--0----------------------||
|--0----------------------|-------------------------||

            
Submit corrections


        A Werewolf lessons Hard to play? Try these video lessons and learn fast A Werewolf lessons
        
↑ Back to top | Tablatures and chords for acoustic guitar and electric guitar, ukulele, drums are parodies/interpretations of the original songs. You may use it for private study, scholarship, research or language learning purposes only