» » »

Hourglass Tabs - At The Drive-In

Artists:  A B C D E F G H I J K L M N O P Q R S T U V W X Y Z # 

Hourglass Tabs

(ver. 1) Click to play this song!
At The Drive-In
4.6/5 (10 votes)
    Hourglass lessons Tabs too difficult? Try these video lessons and learn fast
I commend you for your musical taste.  This is a very good song, 
and you are a very cool person for liking it. :)

  Am    D/F#   F     C

Verse 1:

Am         F           C  
Sucks me in taking a ride
Am         F            C
And I'm wishing for the satellite
Am           F           C
Grabbin vein pullin down on the radio
Am         F               C
Laughing at the face that's bending down

(Riff during verse is probably played with 2 guitars like this):

|---------------------------|   |---8---8-10-12-10--8---8-10-12-10-|
|---1---1-3-5-3-1---1-3-5-3-|   |-8---8---------------8------------|
|-0---0-----------0---------|   |----------------------------------|
|---------------------------|   |----------------------------------|
|---------------------------|   |----------------------------------|
|---------------------------|   |----------------------------------|


Am                D/F#
  I'm all alone so far up here
Am                    D/F#
   And my oxygen's all gone

(Play second verse with the same chords as the first)

(Song kicks back in with a more distorted verse, 
then fades to the background guitar)

|-5-1-3-3-|          |---5---5---5---5---3---3---0---0--|
|-5-1-5-5-|          |--5-5-5-5-8-8-8-8-3-3-3-3-0-0-0-0-|
|-5-2-5-5-|          |-5---5---5---5---5---5---5---5----|
|-7-3-5-5-|          |----------------------------------|
|-7-3-3-3-|          |----------------------------------|
|-5-1-----|          |----------------------------------|


Song order:

Verse 1
Verse 2
Verse 3

Short and very...VERY sweet song...
Submit corrections

↑ Back to top | Tablatures and chords for acoustic guitar and electric guitar, ukulele, drums are parodies/interpretations of the original songs. You may use it for private study, scholarship, research or language learning purposes only