» » »

A Tribe Called Quest - Electric Relaxation Bass

Artists:  A B C D E F G H I J K L M N O P Q R S T U V W X Y Z # 

Electric Relaxation Bass

(ver. 2) Click to play this song!
A Tribe Called Quest
 Rating:
4.3/5 (30 votes)

 Electric Relaxation lessons Tabs too difficult? Try these video lessons and learn fast
 
                [Intro]

G|---------------------------3--1--------------------------------------------|
D|-----------4--------3---1-----------1--3--4-----2--------------------------|
A|-0--1--2-----1--------1----------------------4-----------------------------|
E|---------------------------------------------------------------------------|


[Hook]

G|---------------------------3--1--------------------------------------------|
D|-----------4--------3---1-----------1--3--4-----2--------------------------|
A|-0--1--2-----1--------1----------------------4-----------------------------|
E|---------------------------------------------------------------------------|


[Verse 1]

G|---------------------------3--1--------------------------------------------|
D|-----------4--------3---1-----------1--3--4-----2--------------------------|
A|-0--1--2-----1--------1----------------------4-----------------------------|
E|---------------------------------------------------------------------------|


[Verse 2]

G|---------------------------3--1--------------------------------------------|
D|-----------4--------3---1-----------1--3--4-----2--------------------------|
A|-0--1--2-----1--------1----------------------4-----------------------------|
E|---------------------------------------------------------------------------|

[Verse 3]

G|---------------------------3--1--------------------------------------------|
D|-----------4--------3---1-----------1--3--4-----2--------------------------|
A|-0--1--2-----1--------1----------------------4-----------------------------|
E|---------------------------------------------------------------------------|

[Hook]

G|---------------------------3--1--------------------------------------------|
D|-----------4--------3---1-----------1--3--4-----2--------------------------|
A|-0--1--2-----1--------1----------------------4-----------------------------|
E|---------------------------------------------------------------------------|

[Verse 4]

G|---------------------------3--1--------------------------------------------|
D|-----------4--------3---1-----------1--3--4-----2--------------------------|
A|-0--1--2-----1--------1----------------------4-----------------------------|
E|---------------------------------------------------------------------------|

[Verse 5]

G|---------------------------3--1--------------------------------------------|
D|-----------4--------3---1-----------1--3--4-----2--------------------------|
A|-0--1--2-----1--------1----------------------4-----------------------------|
E|---------------------------------------------------------------------------|


[Verse 6]

G|---------------------------3--1--------------------------------------------|
D|-----------4--------3---1-----------1--3--4-----2--------------------------|
A|-0--1--2-----1--------1----------------------4-----------------------------|
E|---------------------------------------------------------------------------|


[Verse 7]

G|---------------------------3--1--------------------------------------------|
D|-----------4--------3---1-----------1--3--4-----2--------------------------|
A|-0--1--2-----1--------1----------------------4-----------------------------|
E|---------------------------------------------------------------------------|


[Verse 8]

G|---------------------------3--1--------------------------------------------|
D|-----------4--------3---1-----------1--3--4-----2--------------------------|
A|-0--1--2-----1--------1----------------------4-----------------------------|
E|---------------------------------------------------------------------------|


[Hook]

G|---------------------------3--1--------------------------------------------|
D|-----------4--------3---1-----------1--3--4-----2--------------------------|
A|-0--1--2-----1--------1----------------------4-----------------------------|
E|---------------------------------------------------------------------------|


[Outro]

G|---------------------------3--1--------------------------------------------|
D|-----------4--------3---1-----------1--3--4-----2--------------------------|
A|-0--1--2-----1--------1----------------------4-----------------------------|
E|---------------------------------------------------------------------------|
            
Submit corrections


        Electric Relaxation lessons Hard to play? Try these video lessons and learn fast Electric Relaxation lessons
        
↑ Back to top | Tablatures and chords for acoustic guitar and electric guitar, ukulele, drums are parodies/interpretations of the original songs. You may use it for private study, scholarship, research or language learning purposes only