Home » A » Atreyu »

Atreyu - My Fork In The Road Your Knife In My Back Tabs

Artists:  A B C D E F G H I J K L M N O P Q R S T U V W X Y Z # 

My Fork In The Road Your Knife In My Back Tabs

(ver. 3) Click to play this song!
Atreyu
(Intro)
Tuning: DROP C

D|--------------------------------------------------------------------------|
A|--------------------------------------------------------------------------|
F|---------9b---(9)----------------12b—--(12)---------------9----10p7-----12|
C|--10---------------10-----10--7--------------10—-(10)\-7----7--------/9---|
G|8----8-----------------8--------------------------------------------------|
C|--------------------------------------------------------------------------|

D|--------------------------------------------------------------------------|
A|-------------12b—-(12)----------------------------------------------------|
F|---10---------------------------------------------------------------------|
C|9------9--9----------------10-----9b—-(9)---------10-----9h10--9—-7-------|
G|------------------------8------8-----------10--8------8-------------------|
C|--------------------------------------------------------------------------|

D|--------------------------------------------------------------------------|
A|------------—-------------------------------------------------------------|
F|--------------------------------------------------------------------------|
C|(7)-7--9--7—10P7--/9--12--9--10--9--9—9h10p9---------(7)--7--9--7—10p7-—/9|
G|-----------------------------------------------10--10---------------------|
C|--------------------------------------------------------------------------|

D|--------------------------------------------------------------------------|
A|------------—-------------------------------------------------------------|
F|-------------------------------------------9b—-(9)----------------12b-(12)|
C|12--9—10—9--9—-9h10p9-----------—---10---------—-—-10------10--7----------|
G|-----------------------10\8—(8)--8------8---------------8-----------------|
C|--------------------------------------------------------------------------|


D|--------------------------------------------------------------------------|
A|------------—------------------------------12b—(12)-----------------------|
F|----------9-----10p7------12-----10-----------------—---------------9b-(9)|
C|10—-10\7——--—-7-------/9----—-9------9--9---—-—----------------10---------|
G|-----------------------------------------------------8—(8)--8-----8-------|
C|--------------------------------------------------------------------------|


D|--------------------------------------------------------------------------|
A|------------—-------------------------------------------------------------|
F|-------------------------------------------—------------------------------|
C|10—-——-10-—---9h10--9--7--7--9-—7—10p7--/9--12--9--10--9—-9—-9h10p9-------|
G|----8------8---------------------------------------------------------10\8-|
C|--------------------------------------------------------------------------|
            
Submit corrections

↑ Back to top | Tablatures and chords for acoustic guitar and electric guitar, ukulele, drums are parodies/interpretations of the original songs. You may use it for private study, scholarship, research or language learning purposes only